ISO-10303-21;
HEADER;
/****************************************************************
 * Generated by software with PDElib inside                    *
 * PDElib Version v51a, created Fri 09/10/2010                  *
 * ITI Transcendata (http://www.transcendata.com/)              *
 ****************************************************************/
FILE_DESCRIPTION((' '),'2;1');
FILE_NAME('P:\\E-Switch Secure\\3D_MODELS_STP_FORMAT\\800AC2xxxCAP.stp','2017-07-28T13:33:00',(' '),(' '),' ','ACIS',' ');
FILE_SCHEMA(('CONFIG_CONTROL_DESIGN'));
ENDSEC;
DATA;
#5=APPLICATION_CONTEXT('configuration controlled 3D designs of mechanical parts and assemblies');
#6=APPLICATION_PROTOCOL_DEFINITION('International Standard','config_control_design',1995,#5);
#7=MECHANICAL_CONTEXT('None',#5,'mechanical');
#8=PRODUCT('P:\\E-Switch Secure\\3D_MODELS_STP_FORMAT\\800AC2xxxCAP.stp','P:\\E-Switch Secure\\3D_MODELS_STP_FORMAT\\800AC2xxxCAP.stp','None',(#7));
#9=PRODUCT_RELATED_PRODUCT_CATEGORY('detail',$,(#8));
#10=PRODUCT_CATEGORY('part',$);
#11=PRODUCT_CATEGORY_RELATIONSHIP('None','None',#10,#9);
#12=PERSON('PERSON1','None','None',$,$,$);
#13=ORGANIZATION('','None','None');
#14=PERSON_AND_ORGANIZATION(#12,#13);
#15=PERSON_AND_ORGANIZATION_ROLE('design_owner');
#16=CC_DESIGN_PERSON_AND_ORGANIZATION_ASSIGNMENT(#14,#15,(#8));
#17=PRODUCT_DEFINITION_FORMATION_WITH_SPECIFIED_SOURCE('None','None',#8,.NOT_KNOWN.);
#18=PERSON('PERSON2','None','None',$,$,$);
#19=ORGANIZATION('','None','None');
#20=PERSON_AND_ORGANIZATION(#18,#19);
#21=PERSON_AND_ORGANIZATION_ROLE('creator');
#22=CC_DESIGN_PERSON_AND_ORGANIZATION_ASSIGNMENT(#20,#21,(#17));
#23=PERSON('PERSON3','None','None',$,$,$);
#24=ORGANIZATION('','None','None');
#25=PERSON_AND_ORGANIZATION(#23,#24);
#26=PERSON_AND_ORGANIZATION_ROLE('part_supplier');
#27=CC_DESIGN_PERSON_AND_ORGANIZATION_ASSIGNMENT(#25,#26,(#17));
#28=APPROVAL_STATUS('approved');
#29=APPROVAL(#28,'None');
#30=PERSON('PERSON4','None','None',$,$,$);
#31=ORGANIZATION('','None','None');
#32=PERSON_AND_ORGANIZATION(#30,#31);
#33=APPROVAL_ROLE('None');
#34=APPROVAL_PERSON_ORGANIZATION(#32,#29,#33);
#35=CALENDAR_DATE(2017,28,7);
#36=COORDINATED_UNIVERSAL_TIME_OFFSET(0,0,.AHEAD.);
#37=LOCAL_TIME(13,33,0.0,#36);
#38=DATE_AND_TIME(#35,#37);
#39=APPROVAL_DATE_TIME(#38,#29);
#40=CC_DESIGN_APPROVAL(#29,(#17));
#41=SECURITY_CLASSIFICATION_LEVEL('unclassified');
#42=SECURITY_CLASSIFICATION('None','None',#41);
#43=CC_DESIGN_SECURITY_CLASSIFICATION(#42,(#17));
#44=APPROVAL_STATUS('approved');
#45=APPROVAL(#44,'None');
#46=PERSON('PERSON5','None','None',$,$,$);
#47=ORGANIZATION('','None','None');
#48=PERSON_AND_ORGANIZATION(#46,#47);
#49=APPROVAL_ROLE('None');
#50=APPROVAL_PERSON_ORGANIZATION(#48,#45,#49);
#51=CALENDAR_DATE(2017,28,7);
#52=COORDINATED_UNIVERSAL_TIME_OFFSET(0,0,.AHEAD.);
#53=LOCAL_TIME(13,33,0.0,#52);
#54=DATE_AND_TIME(#51,#53);
#55=APPROVAL_DATE_TIME(#54,#45);
#56=CC_DESIGN_APPROVAL(#45,(#42));
#57=PERSON('PERSON6','None','None',$,$,$);
#58=ORGANIZATION('','None','None');
#59=PERSON_AND_ORGANIZATION(#57,#58);
#60=PERSON_AND_ORGANIZATION_ROLE('classification_officer');
#61=CC_DESIGN_PERSON_AND_ORGANIZATION_ASSIGNMENT(#59,#60,(#42));
#62=DATE_TIME_ROLE('classification_date');
#63=CALENDAR_DATE(2017,28,7);
#64=COORDINATED_UNIVERSAL_TIME_OFFSET(0,0,.AHEAD.);
#65=LOCAL_TIME(13,33,0.0,#64);
#66=DATE_AND_TIME(#63,#65);
#67=CC_DESIGN_DATE_AND_TIME_ASSIGNMENT(#66,#62,(#42));
#68=DESIGN_CONTEXT('part definition',#5,'design');
#69=PRODUCT_DEFINITION('None','None',#17,#68);
#70=PERSON('PERSON7','None','None',$,$,$);
#71=ORGANIZATION('','None','None');
#72=PERSON_AND_ORGANIZATION(#70,#71);
#73=PERSON_AND_ORGANIZATION_ROLE('creator');
#74=CC_DESIGN_PERSON_AND_ORGANIZATION_ASSIGNMENT(#72,#73,(#69));
#75=DATE_TIME_ROLE('creation_date');
#76=CALENDAR_DATE(2017,28,7);
#77=COORDINATED_UNIVERSAL_TIME_OFFSET(0,0,.AHEAD.);
#78=LOCAL_TIME(13,33,0.0,#77);
#79=DATE_AND_TIME(#76,#78);
#80=CC_DESIGN_DATE_AND_TIME_ASSIGNMENT(#79,#75,(#69));
#81=APPROVAL_STATUS('approved');
#82=APPROVAL(#81,'None');
#83=PERSON('PERSON8','None','None',$,$,$);
#84=ORGANIZATION('','None','None');
#85=PERSON_AND_ORGANIZATION(#83,#84);
#86=APPROVAL_ROLE('None');
#87=APPROVAL_PERSON_ORGANIZATION(#85,#82,#86);
#88=CALENDAR_DATE(2017,28,7);
#89=COORDINATED_UNIVERSAL_TIME_OFFSET(0,0,.AHEAD.);
#90=LOCAL_TIME(13,33,0.0,#89);
#91=DATE_AND_TIME(#88,#90);
#92=APPROVAL_DATE_TIME(#91,#82);
#93=CC_DESIGN_APPROVAL(#82,(#69));
#99=(NAMED_UNIT(*)PLANE_ANGLE_UNIT()SI_UNIT($,.RADIAN.));
#100=DIMENSIONAL_EXPONENTS(0.0,0.0,0.0,0.0,0.0,0.0,0.0);
#101=PLANE_ANGLE_MEASURE_WITH_UNIT(PLANE_ANGLE_MEASURE(0.0174532925),#99);
#105=(CONVERSION_BASED_UNIT('DEGREE',#101)NAMED_UNIT(#100)PLANE_ANGLE_UNIT());
#109=(NAMED_UNIT(*)SI_UNIT($,.STERADIAN.)SOLID_ANGLE_UNIT());
#113=(LENGTH_UNIT()NAMED_UNIT(*)SI_UNIT(.CENTI.,.METRE.));
#114=DIMENSIONAL_EXPONENTS(1.0,0.0,0.0,0.0,0.0,0.0,0.0);
#115=LENGTH_MEASURE_WITH_UNIT(LENGTH_MEASURE(2.54),#113);
#119=(CONVERSION_BASED_UNIT('INCH',#115)LENGTH_UNIT()NAMED_UNIT(#114));
#121=UNCERTAINTY_MEASURE_WITH_UNIT(LENGTH_MEASURE(0.001),#119,'DISTANCE_ACCURACY_VALUE','');
#123=(GEOMETRIC_REPRESENTATION_CONTEXT(3)GLOBAL_UNCERTAINTY_ASSIGNED_CONTEXT((#121))GLOBAL_UNIT_ASSIGNED_CONTEXT((#105,#109,#119))REPRESENTATION_CONTEXT('None','None'));
#124=AXIS2_PLACEMENT_3D('',#125,#126,#127);
#125=CARTESIAN_POINT('',(0.0,0.0,0.0));
#126=DIRECTION('',(0.0,0.0,1.0));
#127=DIRECTION('',(1.0,0.0,0.0));
#128=SHAPE_REPRESENTATION('',(#124),#123);
#129=PRODUCT_DEFINITION_SHAPE('','',#69);
#130=SHAPE_DEFINITION_REPRESENTATION(#129,#128);
#136=(NAMED_UNIT(*)PLANE_ANGLE_UNIT()SI_UNIT($,.RADIAN.));
#137=DIMENSIONAL_EXPONENTS(0.0,0.0,0.0,0.0,0.0,0.0,0.0);
#138=PLANE_ANGLE_MEASURE_WITH_UNIT(PLANE_ANGLE_MEASURE(0.0174532925),#136);
#142=(CONVERSION_BASED_UNIT('DEGREE',#138)NAMED_UNIT(#137)PLANE_ANGLE_UNIT());
#146=(NAMED_UNIT(*)SI_UNIT($,.STERADIAN.)SOLID_ANGLE_UNIT());
#150=(LENGTH_UNIT()NAMED_UNIT(*)SI_UNIT(.CENTI.,.METRE.));
#152=UNCERTAINTY_MEASURE_WITH_UNIT(LENGTH_MEASURE(0.000001),#150,'DISTANCE_ACCURACY_VALUE','');
#154=(GEOMETRIC_REPRESENTATION_CONTEXT(3)GLOBAL_UNCERTAINTY_ASSIGNED_CONTEXT((#152))GLOBAL_UNIT_ASSIGNED_CONTEXT((#142,#146,#150))REPRESENTATION_CONTEXT('','3D'));
#155=CARTESIAN_POINT('',(0.0,0.0,-0.931496062992126));
#156=DIRECTION('',(0.0,0.0,-1.0));
#157=DIRECTION('',(-1.0,0.0,0.0));
#158=AXIS2_PLACEMENT_3D('',#155,#156,#157);
#159=CONICAL_SURFACE('',#158,1.0,44.999999999999986);
#160=CARTESIAN_POINT('',(-0.059055118110236,-7.232166E-018,0.009448818897638));
#161=VERTEX_POINT('',#160);
#162=CARTESIAN_POINT('',(0.0,0.0,0.009448818897638));
#163=DIRECTION('',(0.0,0.0,-1.0));
#164=DIRECTION('',(1.0,0.0,0.0));
#165=AXIS2_PLACEMENT_3D('',#162,#163,#164);
#166=CIRCLE('',#165,0.059055118110236);
#167=EDGE_CURVE('',#161,#161,#166,.T.);
#168=ORIENTED_EDGE('',*,*,#167,.T.);
#169=EDGE_LOOP('',(#168));
#170=FACE_OUTER_BOUND('',#169,.T.);
#171=CARTESIAN_POINT('',(-0.050196850393701,-6.147341E-018,0.018307086614174));
#172=VERTEX_POINT('',#171);
#173=CARTESIAN_POINT('',(0.0,0.0,0.018307086614173));
#174=DIRECTION('',(0.0,0.0,1.0));
#175=DIRECTION('',(1.0,0.0,0.0));
#176=AXIS2_PLACEMENT_3D('',#173,#174,#175);
#177=CIRCLE('',#176,0.050196850393701);
#178=EDGE_CURVE('',#172,#172,#177,.T.);
#179=ORIENTED_EDGE('',*,*,#178,.T.);
#180=EDGE_LOOP('',(#179));
#181=FACE_BOUND('',#180,.T.);
#182=ADVANCED_FACE('',(#170,#181),#159,.F.);
#183=CARTESIAN_POINT('',(-0.086614173228346,-0.086614173228346,0.009448818897638));
#184=DIRECTION('',(0.0,0.0,1.0));
#185=DIRECTION('',(1.0,0.0,0.0));
#186=AXIS2_PLACEMENT_3D('',#183,#184,#185);
#187=PLANE('',#186);
#188=CARTESIAN_POINT('',(-0.078740157480315,9.642888E-018,0.009448818897638));
#189=VERTEX_POINT('',#188);
#190=CARTESIAN_POINT('',(0.0,0.0,0.009448818897638));
#191=DIRECTION('',(0.0,0.0,1.0));
#192=DIRECTION('',(1.0,0.0,0.0));
#193=AXIS2_PLACEMENT_3D('',#190,#191,#192);
#194=CIRCLE('',#193,0.078740157480315);
#195=EDGE_CURVE('',#189,#189,#194,.T.);
#196=ORIENTED_EDGE('',*,*,#195,.F.);
#197=EDGE_LOOP('',(#196));
#198=FACE_OUTER_BOUND('',#197,.T.);
#199=ORIENTED_EDGE('',*,*,#167,.F.);
#200=EDGE_LOOP('',(#199));
#201=FACE_BOUND('',#200,.T.);
#202=ADVANCED_FACE('',(#198,#201),#187,.F.);
#203=CARTESIAN_POINT('',(0.0,0.0,0.0));
#204=DIRECTION('',(0.0,0.0,1.0));
#205=DIRECTION('',(-1.0,0.0,0.0));
#206=AXIS2_PLACEMENT_3D('',#203,#204,#205);
#207=CYLINDRICAL_SURFACE('',#206,0.050196850393701);
#208=CARTESIAN_POINT('',(-0.050196850393701,1.844202E-017,0.090551181102362));
#209=VERTEX_POINT('',#208);
#210=CARTESIAN_POINT('',(0.0,0.0,0.090551181102362));
#211=DIRECTION('',(0.0,0.0,-1.0));
#212=DIRECTION('',(1.0,0.0,0.0));
#213=AXIS2_PLACEMENT_3D('',#210,#211,#212);
#214=CIRCLE('',#213,0.050196850393701);
#215=EDGE_CURVE('',#209,#209,#214,.T.);
#216=ORIENTED_EDGE('',*,*,#215,.F.);
#217=EDGE_LOOP('',(#216));
#218=FACE_OUTER_BOUND('',#217,.T.);
#219=ORIENTED_EDGE('',*,*,#178,.F.);
#220=EDGE_LOOP('',(#219));
#221=FACE_BOUND('',#220,.T.);
#222=ADVANCED_FACE('',(#218,#221),#207,.F.);
#223=CARTESIAN_POINT('',(0.0,0.0,0.930708661417321));
#224=DIRECTION('',(0.0,0.0,1.0));
#225=DIRECTION('',(-1.0,0.0,0.0));
#226=AXIS2_PLACEMENT_3D('',#223,#224,#225);
#227=CONICAL_SURFACE('',#226,1.0,45.000000000000014);
#228=CARTESIAN_POINT('',(-0.09251968503937,1.133039E-017,0.023228346456693));
#229=VERTEX_POINT('',#228);
#230=CARTESIAN_POINT('',(0.0,0.0,0.023228346456693));
#231=DIRECTION('',(0.0,0.0,-1.0));
#232=DIRECTION('',(1.0,0.0,0.0));
#233=AXIS2_PLACEMENT_3D('',#230,#231,#232);
#234=CIRCLE('',#233,0.09251968503937);
#235=EDGE_CURVE('',#229,#229,#234,.T.);
#236=ORIENTED_EDGE('',*,*,#235,.T.);
#237=EDGE_LOOP('',(#236));
#238=FACE_OUTER_BOUND('',#237,.T.);
#239=ORIENTED_EDGE('',*,*,#195,.T.);
#240=EDGE_LOOP('',(#239));
#241=FACE_BOUND('',#240,.T.);
#242=ADVANCED_FACE('',(#238,#241),#227,.T.);
#243=CARTESIAN_POINT('',(0.0,0.0,0.0));
#244=DIRECTION('',(0.0,0.0,1.0));
#245=DIRECTION('',(-1.0,0.0,0.0));
#246=AXIS2_PLACEMENT_3D('',#243,#244,#245);
#247=CYLINDRICAL_SURFACE('',#246,0.09251968503937);
#248=CARTESIAN_POINT('',(-0.09251968503937,3.399118E-017,0.096456692913386));
#249=VERTEX_POINT('',#248);
#250=CARTESIAN_POINT('',(0.0,0.0,0.096456692913386));
#251=DIRECTION('',(0.0,0.0,-1.0));
#252=DIRECTION('',(1.0,0.0,0.0));
#253=AXIS2_PLACEMENT_3D('',#250,#251,#252);
#254=CIRCLE('',#253,0.09251968503937);
#255=EDGE_CURVE('',#249,#249,#254,.T.);
#256=ORIENTED_EDGE('',*,*,#255,.T.);
#257=EDGE_LOOP('',(#256));
#258=FACE_OUTER_BOUND('',#257,.T.);
#259=ORIENTED_EDGE('',*,*,#235,.F.);
#260=EDGE_LOOP('',(#259));
#261=FACE_BOUND('',#260,.T.);
#262=ADVANCED_FACE('',(#258,#261),#247,.T.);
#263=CARTESIAN_POINT('',(-0.127322834645669,-0.127322834645669,0.096456692913386));
#264=DIRECTION('',(0.0,0.0,1.0));
#265=DIRECTION('',(1.0,0.0,0.0));
#266=AXIS2_PLACEMENT_3D('',#263,#264,#265);
#267=PLANE('',#266);
#268=CARTESIAN_POINT('',(-0.115748031496063,4.252514E-017,0.096456692913386));
#269=VERTEX_POINT('',#268);
#270=CARTESIAN_POINT('',(0.0,0.0,0.096456692913386));
#271=DIRECTION('',(0.0,0.0,-1.0));
#272=DIRECTION('',(1.0,0.0,0.0));
#273=AXIS2_PLACEMENT_3D('',#270,#271,#272);
#274=CIRCLE('',#273,0.115748031496063);
#275=EDGE_CURVE('',#269,#269,#274,.T.);
#276=ORIENTED_EDGE('',*,*,#275,.T.);
#277=EDGE_LOOP('',(#276));
#278=FACE_OUTER_BOUND('',#277,.T.);
#279=ORIENTED_EDGE('',*,*,#255,.F.);
#280=EDGE_LOOP('',(#279));
#281=FACE_BOUND('',#280,.T.);
#282=ADVANCED_FACE('',(#278,#281),#267,.F.);
#283=CARTESIAN_POINT('',(0.0,0.0,-0.004822834645669));
#284=DIRECTION('',(0.0,0.0,1.0));
#285=DIRECTION('',(-1.0,0.0,0.0));
#286=AXIS2_PLACEMENT_3D('',#283,#284,#285);
#287=CYLINDRICAL_SURFACE('',#286,0.115748031496063);
#288=ORIENTED_EDGE('',*,*,#275,.F.);
#289=EDGE_LOOP('',(#288));
#290=FACE_OUTER_BOUND('',#289,.T.);
#291=CARTESIAN_POINT('',(-0.115748031496063,4.252514E-017,0.0));
#292=VERTEX_POINT('',#291);
#293=CARTESIAN_POINT('',(0.0,0.0,0.0));
#294=DIRECTION('',(0.0,0.0,1.0));
#295=DIRECTION('',(1.0,0.0,0.0));
#296=AXIS2_PLACEMENT_3D('',#293,#294,#295);
#297=CIRCLE('',#296,0.115748031496063);
#298=EDGE_CURVE('',#292,#292,#297,.T.);
#299=ORIENTED_EDGE('',*,*,#298,.F.);
#300=EDGE_LOOP('',(#299));
#301=FACE_BOUND('',#300,.T.);
#302=ADVANCED_FACE('',(#290,#301),#287,.F.);
#303=CARTESIAN_POINT('',(-0.055216535433071,-0.055216535433071,0.090551181102362));
#304=DIRECTION('',(0.0,0.0,1.0));
#305=DIRECTION('',(1.0,0.0,0.0));
#306=AXIS2_PLACEMENT_3D('',#303,#304,#305);
#307=PLANE('',#306);
#308=ORIENTED_EDGE('',*,*,#215,.T.);
#309=EDGE_LOOP('',(#308));
#310=FACE_OUTER_BOUND('',#309,.T.);
#311=ADVANCED_FACE('',(#310),#307,.F.);
#312=CARTESIAN_POINT('',(0.161318897637796,-0.161318897637796,0.0));
#313=DIRECTION('',(0.0,0.0,-1.0));
#314=DIRECTION('',(-1.0,0.0,0.0));
#315=AXIS2_PLACEMENT_3D('',#312,#313,#314);
#316=PLANE('',#315);
#317=CARTESIAN_POINT('',(0.146653543307087,-5.387964E-017,0.0));
#318=VERTEX_POINT('',#317);
#319=CARTESIAN_POINT('',(0.0,0.0,0.0));
#320=DIRECTION('',(0.0,0.0,-1.0));
#321=DIRECTION('',(-1.0,0.0,0.0));
#322=AXIS2_PLACEMENT_3D('',#319,#320,#321);
#323=CIRCLE('',#322,0.146653543307087);
#324=EDGE_CURVE('',#318,#318,#323,.T.);
#325=ORIENTED_EDGE('',*,*,#324,.T.);
#326=EDGE_LOOP('',(#325));
#327=FACE_OUTER_BOUND('',#326,.T.);
#328=ORIENTED_EDGE('',*,*,#298,.T.);
#329=EDGE_LOOP('',(#328));
#330=FACE_BOUND('',#329,.T.);
#331=ADVANCED_FACE('',(#327,#330),#316,.T.);
#332=CARTESIAN_POINT('',(0.0,0.0,0.133858267716535));
#333=DIRECTION('',(0.0,0.0,-1.0));
#334=DIRECTION('',(-1.0,0.0,0.0));
#335=AXIS2_PLACEMENT_3D('',#332,#333,#334);
#336=TOROIDAL_SURFACE('',#335,0.142716535433071,0.003937007874016);
#337=CARTESIAN_POINT('',(0.146653543307087,-5.387964E-017,0.133858267716535));
#338=VERTEX_POINT('',#337);
#339=CARTESIAN_POINT('',(0.0,0.0,0.133858267716535));
#340=DIRECTION('',(0.0,0.0,1.0));
#341=DIRECTION('',(-1.0,0.0,0.0));
#342=AXIS2_PLACEMENT_3D('',#339,#340,#341);
#343=CIRCLE('',#342,0.146653543307087);
#344=EDGE_CURVE('',#338,#338,#343,.T.);
#345=ORIENTED_EDGE('',*,*,#344,.T.);
#346=EDGE_LOOP('',(#345));
#347=FACE_OUTER_BOUND('',#346,.T.);
#348=CARTESIAN_POINT('',(0.142716535433071,0.0,0.137795275590551));
#349=VERTEX_POINT('',#348);
#350=CARTESIAN_POINT('',(0.0,0.0,0.137795275590551));
#351=DIRECTION('',(0.0,0.0,-1.0));
#352=DIRECTION('',(-1.0,0.0,0.0));
#353=AXIS2_PLACEMENT_3D('',#350,#351,#352);
#354=CIRCLE('',#353,0.142716535433071);
#355=EDGE_CURVE('',#349,#349,#354,.T.);
#356=ORIENTED_EDGE('',*,*,#355,.T.);
#357=EDGE_LOOP('',(#356));
#358=FACE_BOUND('',#357,.T.);
#359=ADVANCED_FACE('',(#347,#358),#336,.T.);
#360=CARTESIAN_POINT('',(0.0,0.0,-0.006692913385827));
#361=DIRECTION('',(0.0,0.0,1.0));
#362=DIRECTION('',(1.0,0.0,0.0));
#363=AXIS2_PLACEMENT_3D('',#360,#361,#362);
#364=CYLINDRICAL_SURFACE('',#363,0.146653543307087);
#365=ORIENTED_EDGE('',*,*,#344,.F.);
#366=EDGE_LOOP('',(#365));
#367=FACE_OUTER_BOUND('',#366,.T.);
#368=ORIENTED_EDGE('',*,*,#324,.F.);
#369=EDGE_LOOP('',(#368));
#370=FACE_BOUND('',#369,.T.);
#371=ADVANCED_FACE('',(#367,#370),#364,.T.);
#372=CARTESIAN_POINT('',(0.156988188976378,-0.156988188976378,0.137795275590551));
#373=DIRECTION('',(0.0,0.0,-1.0));
#374=DIRECTION('',(-1.0,0.0,0.0));
#375=AXIS2_PLACEMENT_3D('',#372,#373,#374);
#376=PLANE('',#375);
#377=ORIENTED_EDGE('',*,*,#355,.F.);
#378=EDGE_LOOP('',(#377));
#379=FACE_OUTER_BOUND('',#378,.T.);
#380=ADVANCED_FACE('',(#379),#376,.F.);
#381=CLOSED_SHELL('',(#182,#202,#222,#242,#262,#282,#302,#311,#331,#359,#371,#380));
#382=MANIFOLD_SOLID_BREP('',#381);
#383=COLOUR_RGB('',0.75,0.75,0.75);
#384=FILL_AREA_STYLE_COLOUR('',#383);
#385=FILL_AREA_STYLE('',(#384));
#386=SURFACE_STYLE_FILL_AREA(#385);
#387=SURFACE_SIDE_STYLE('',(#386));
#388=SURFACE_STYLE_USAGE(.BOTH.,#387);
#389=PRESENTATION_STYLE_ASSIGNMENT((#388));
#390=STYLED_ITEM('',(#389),#382);
#391=MECHANICAL_DESIGN_GEOMETRIC_PRESENTATION_REPRESENTATION('',(#390),#123);
#392=ADVANCED_BREP_SHAPE_REPRESENTATION('ABSR',(#382),#123);
#393=SHAPE_REPRESENTATION_RELATIONSHIP('SRR','None',#392,#128);
ENDSEC;
END-ISO-10303-21;
