ISO-10303-21;
HEADER;
/* Generated by software containing ST-Developer
 * from STEP Tools, Inc. (www.steptools.com) 
 */

FILE_DESCRIPTION(
/* description */ (''),
/* implementation_level */ '2;1');

FILE_NAME(
/* name */ 'C:\\myloadpoint\\New-STEP-Files\\TL3265SBTNCLR.stp',
/* time_stamp */ '2025-06-04T11:12:04-05:00',
/* author */ ('mroman'),
/* organization */ (''),
/* preprocessor_version */ 'ST-DEVELOPER v18.1',
/* originating_system */ 'Autodesk Inventor 2022',
/* authorisation */ '');

FILE_SCHEMA (('AUTOMOTIVE_DESIGN { 1 0 10303 214 3 1 1 }'));
ENDSEC;

DATA;
#10=MECHANICAL_DESIGN_GEOMETRIC_PRESENTATION_REPRESENTATION('',(#355,#356,
#357,#358,#359,#360,#361,#362,#363,#364,#365,#366,#367,#368,#369,#370,#371,
#372,#373,#374,#375,#376),#684);
#11=SHAPE_REPRESENTATION_RELATIONSHIP('SRR','None',#690,#12);
#12=ADVANCED_BREP_SHAPE_REPRESENTATION('',(#13),#683);
#13=MANIFOLD_SOLID_BREP('Solid1',#398);
#14=FACE_BOUND('',#131,.T.);
#15=FACE_BOUND('',#134,.T.);
#16=FACE_BOUND('',#137,.T.);
#17=FACE_BOUND('',#139,.T.);
#18=FACE_BOUND('',#141,.T.);
#19=FACE_BOUND('',#143,.T.);
#20=PLANE('',#419);
#21=PLANE('',#420);
#22=PLANE('',#424);
#23=PLANE('',#427);
#24=PLANE('',#428);
#25=PLANE('',#429);
#26=PLANE('',#430);
#27=PLANE('',#434);
#28=PLANE('',#437);
#29=PLANE('',#441);
#30=PLANE('',#445);
#31=PLANE('',#449);
#32=PLANE('',#450);
#33=PLANE('',#451);
#34=PLANE('',#455);
#35=LINE('',#585,#63);
#36=LINE('',#593,#64);
#37=LINE('',#598,#65);
#38=LINE('',#604,#66);
#39=LINE('',#607,#67);
#40=LINE('',#610,#68);
#41=LINE('',#612,#69);
#42=LINE('',#613,#70);
#43=LINE('',#616,#71);
#44=LINE('',#618,#72);
#45=LINE('',#619,#73);
#46=LINE('',#622,#74);
#47=LINE('',#624,#75);
#48=LINE('',#625,#76);
#49=LINE('',#636,#77);
#50=LINE('',#638,#78);
#51=LINE('',#639,#79);
#52=LINE('',#644,#80);
#53=LINE('',#652,#81);
#54=LINE('',#655,#82);
#55=LINE('',#658,#83);
#56=LINE('',#660,#84);
#57=LINE('',#661,#85);
#58=LINE('',#667,#86);
#59=LINE('',#669,#87);
#60=LINE('',#670,#88);
#61=LINE('',#678,#89);
#62=LINE('',#679,#90);
#63=VECTOR('',#470,0.25);
#64=VECTOR('',#479,1.);
#65=VECTOR('',#484,1.);
#66=VECTOR('',#489,1.);
#67=VECTOR('',#492,1.);
#68=VECTOR('',#495,1.);
#69=VECTOR('',#496,1.);
#70=VECTOR('',#497,1.);
#71=VECTOR('',#500,1.);
#72=VECTOR('',#501,1.);
#73=VECTOR('',#502,1.);
#74=VECTOR('',#505,1.);
#75=VECTOR('',#506,1.);
#76=VECTOR('',#507,1.);
#77=VECTOR('',#522,1.);
#78=VECTOR('',#525,1.);
#79=VECTOR('',#526,1.);
#80=VECTOR('',#531,0.15);
#81=VECTOR('',#540,1.);
#82=VECTOR('',#543,1.);
#83=VECTOR('',#546,1.);
#84=VECTOR('',#547,1.);
#85=VECTOR('',#548,1.);
#86=VECTOR('',#555,1.);
#87=VECTOR('',#558,1.);
#88=VECTOR('',#559,1.);
#89=VECTOR('',#570,0.4);
#90=VECTOR('',#571,0.4);
#91=CYLINDRICAL_SURFACE('',#417,0.25);
#92=CYLINDRICAL_SURFACE('',#438,0.15);
#93=CYLINDRICAL_SURFACE('',#442,0.29);
#94=CYLINDRICAL_SURFACE('',#446,0.29);
#95=CYLINDRICAL_SURFACE('',#453,0.4);
#96=FACE_OUTER_BOUND('',#117,.T.);
#97=FACE_OUTER_BOUND('',#118,.T.);
#98=FACE_OUTER_BOUND('',#119,.T.);
#99=FACE_OUTER_BOUND('',#120,.T.);
#100=FACE_OUTER_BOUND('',#121,.T.);
#101=FACE_OUTER_BOUND('',#122,.T.);
#102=FACE_OUTER_BOUND('',#123,.T.);
#103=FACE_OUTER_BOUND('',#124,.T.);
#104=FACE_OUTER_BOUND('',#125,.T.);
#105=FACE_OUTER_BOUND('',#126,.T.);
#106=FACE_OUTER_BOUND('',#127,.T.);
#107=FACE_OUTER_BOUND('',#128,.T.);
#108=FACE_OUTER_BOUND('',#129,.T.);
#109=FACE_OUTER_BOUND('',#130,.T.);
#110=FACE_OUTER_BOUND('',#132,.T.);
#111=FACE_OUTER_BOUND('',#133,.T.);
#112=FACE_OUTER_BOUND('',#135,.T.);
#113=FACE_OUTER_BOUND('',#136,.T.);
#114=FACE_OUTER_BOUND('',#138,.T.);
#115=FACE_OUTER_BOUND('',#140,.T.);
#116=FACE_OUTER_BOUND('',#142,.T.);
#117=EDGE_LOOP('',(#252,#253,#254,#255,#256));
#118=EDGE_LOOP('',(#257,#258,#259,#260,#261));
#119=EDGE_LOOP('',(#262));
#120=EDGE_LOOP('',(#263,#264,#265,#266,#267));
#121=EDGE_LOOP('',(#268,#269,#270,#271));
#122=EDGE_LOOP('',(#272,#273,#274,#275));
#123=EDGE_LOOP('',(#276,#277,#278,#279));
#124=EDGE_LOOP('',(#280,#281,#282,#283));
#125=EDGE_LOOP('',(#284,#285,#286,#287,#288));
#126=EDGE_LOOP('',(#289,#290,#291,#292));
#127=EDGE_LOOP('',(#293,#294,#295,#296));
#128=EDGE_LOOP('',(#297,#298,#299,#300));
#129=EDGE_LOOP('',(#301));
#130=EDGE_LOOP('',(#302,#303,#304,#305));
#131=EDGE_LOOP('',(#306,#307,#308,#309));
#132=EDGE_LOOP('',(#310,#311,#312,#313));
#133=EDGE_LOOP('',(#314,#315,#316,#317));
#134=EDGE_LOOP('',(#318,#319,#320,#321));
#135=EDGE_LOOP('',(#322,#323,#324,#325));
#136=EDGE_LOOP('',(#326,#327,#328,#329));
#137=EDGE_LOOP('',(#330));
#138=EDGE_LOOP('',(#331));
#139=EDGE_LOOP('',(#332,#333,#334,#335));
#140=EDGE_LOOP('',(#336,#337,#338,#339,#340,#341,#342,#343,#344,#345,#346,
#347));
#141=EDGE_LOOP('',(#348,#349,#350,#351));
#142=EDGE_LOOP('',(#352));
#143=EDGE_LOOP('',(#353));
#144=CIRCLE('',#413,0.22);
#145=CIRCLE('',#414,0.03);
#146=CIRCLE('',#415,0.25);
#147=CIRCLE('',#416,0.25);
#148=CIRCLE('',#418,0.25);
#149=CIRCLE('',#421,0.29);
#150=CIRCLE('',#422,0.4);
#151=CIRCLE('',#423,0.4);
#152=CIRCLE('',#425,0.29);
#153=CIRCLE('',#426,0.4);
#154=CIRCLE('',#431,0.29);
#155=CIRCLE('',#432,0.4);
#156=CIRCLE('',#433,0.4);
#157=CIRCLE('',#435,0.29);
#158=CIRCLE('',#436,0.4);
#159=CIRCLE('',#439,0.15);
#160=CIRCLE('',#440,0.15);
#161=CIRCLE('',#443,0.29);
#162=CIRCLE('',#444,0.29);
#163=CIRCLE('',#447,0.29);
#164=CIRCLE('',#448,0.29);
#165=CIRCLE('',#452,0.4);
#166=CIRCLE('',#454,0.4);
#167=VERTEX_POINT('',#576);
#168=VERTEX_POINT('',#578);
#169=VERTEX_POINT('',#580);
#170=VERTEX_POINT('',#584);
#171=VERTEX_POINT('',#589);
#172=VERTEX_POINT('',#590);
#173=VERTEX_POINT('',#592);
#174=VERTEX_POINT('',#594);
#175=VERTEX_POINT('',#596);
#176=VERTEX_POINT('',#600);
#177=VERTEX_POINT('',#601);
#178=VERTEX_POINT('',#603);
#179=VERTEX_POINT('',#605);
#180=VERTEX_POINT('',#609);
#181=VERTEX_POINT('',#611);
#182=VERTEX_POINT('',#615);
#183=VERTEX_POINT('',#617);
#184=VERTEX_POINT('',#621);
#185=VERTEX_POINT('',#623);
#186=VERTEX_POINT('',#628);
#187=VERTEX_POINT('',#632);
#188=VERTEX_POINT('',#634);
#189=VERTEX_POINT('',#641);
#190=VERTEX_POINT('',#643);
#191=VERTEX_POINT('',#648);
#192=VERTEX_POINT('',#649);
#193=VERTEX_POINT('',#651);
#194=VERTEX_POINT('',#653);
#195=VERTEX_POINT('',#657);
#196=VERTEX_POINT('',#659);
#197=VERTEX_POINT('',#663);
#198=VERTEX_POINT('',#665);
#199=VERTEX_POINT('',#673);
#200=VERTEX_POINT('',#676);
#201=EDGE_CURVE('',#167,#167,#144,.T.);
#202=EDGE_CURVE('',#167,#168,#145,.T.);
#203=EDGE_CURVE('',#168,#169,#146,.T.);
#204=EDGE_CURVE('',#169,#168,#147,.T.);
#205=EDGE_CURVE('',#169,#170,#35,.T.);
#206=EDGE_CURVE('',#170,#170,#148,.T.);
#207=EDGE_CURVE('',#171,#172,#149,.T.);
#208=EDGE_CURVE('',#171,#173,#36,.T.);
#209=EDGE_CURVE('',#174,#173,#150,.T.);
#210=EDGE_CURVE('',#175,#174,#151,.T.);
#211=EDGE_CURVE('',#175,#172,#37,.T.);
#212=EDGE_CURVE('',#176,#177,#152,.T.);
#213=EDGE_CURVE('',#176,#178,#38,.T.);
#214=EDGE_CURVE('',#179,#178,#153,.T.);
#215=EDGE_CURVE('',#179,#177,#39,.T.);
#216=EDGE_CURVE('',#172,#180,#40,.T.);
#217=EDGE_CURVE('',#181,#175,#41,.T.);
#218=EDGE_CURVE('',#181,#180,#42,.T.);
#219=EDGE_CURVE('',#182,#171,#43,.T.);
#220=EDGE_CURVE('',#183,#182,#44,.T.);
#221=EDGE_CURVE('',#173,#183,#45,.T.);
#222=EDGE_CURVE('',#177,#184,#46,.T.);
#223=EDGE_CURVE('',#185,#179,#47,.T.);
#224=EDGE_CURVE('',#184,#185,#48,.T.);
#225=EDGE_CURVE('',#180,#182,#154,.T.);
#226=EDGE_CURVE('',#186,#181,#155,.T.);
#227=EDGE_CURVE('',#183,#186,#156,.T.);
#228=EDGE_CURVE('',#184,#187,#157,.T.);
#229=EDGE_CURVE('',#188,#185,#158,.T.);
#230=EDGE_CURVE('',#187,#188,#49,.T.);
#231=EDGE_CURVE('',#187,#176,#50,.T.);
#232=EDGE_CURVE('',#178,#188,#51,.T.);
#233=EDGE_CURVE('',#189,#189,#159,.T.);
#234=EDGE_CURVE('',#189,#190,#52,.T.);
#235=EDGE_CURVE('',#190,#190,#160,.T.);
#236=EDGE_CURVE('',#191,#192,#161,.T.);
#237=EDGE_CURVE('',#193,#191,#53,.T.);
#238=EDGE_CURVE('',#194,#193,#162,.T.);
#239=EDGE_CURVE('',#194,#192,#54,.T.);
#240=EDGE_CURVE('',#192,#195,#55,.T.);
#241=EDGE_CURVE('',#196,#194,#56,.T.);
#242=EDGE_CURVE('',#196,#195,#57,.T.);
#243=EDGE_CURVE('',#195,#197,#163,.T.);
#244=EDGE_CURVE('',#198,#196,#164,.T.);
#245=EDGE_CURVE('',#198,#197,#58,.T.);
#246=EDGE_CURVE('',#197,#191,#59,.T.);
#247=EDGE_CURVE('',#193,#198,#60,.T.);
#248=EDGE_CURVE('',#199,#199,#165,.T.);
#249=EDGE_CURVE('',#200,#200,#166,.T.);
#250=EDGE_CURVE('',#200,#186,#61,.T.);
#251=EDGE_CURVE('',#174,#199,#62,.T.);
#252=ORIENTED_EDGE('',*,*,#201,.T.);
#253=ORIENTED_EDGE('',*,*,#202,.T.);
#254=ORIENTED_EDGE('',*,*,#203,.T.);
#255=ORIENTED_EDGE('',*,*,#204,.T.);
#256=ORIENTED_EDGE('',*,*,#202,.F.);
#257=ORIENTED_EDGE('',*,*,#203,.F.);
#258=ORIENTED_EDGE('',*,*,#204,.F.);
#259=ORIENTED_EDGE('',*,*,#205,.T.);
#260=ORIENTED_EDGE('',*,*,#206,.T.);
#261=ORIENTED_EDGE('',*,*,#205,.F.);
#262=ORIENTED_EDGE('',*,*,#201,.F.);
#263=ORIENTED_EDGE('',*,*,#207,.F.);
#264=ORIENTED_EDGE('',*,*,#208,.T.);
#265=ORIENTED_EDGE('',*,*,#209,.F.);
#266=ORIENTED_EDGE('',*,*,#210,.F.);
#267=ORIENTED_EDGE('',*,*,#211,.T.);
#268=ORIENTED_EDGE('',*,*,#212,.F.);
#269=ORIENTED_EDGE('',*,*,#213,.T.);
#270=ORIENTED_EDGE('',*,*,#214,.F.);
#271=ORIENTED_EDGE('',*,*,#215,.T.);
#272=ORIENTED_EDGE('',*,*,#216,.F.);
#273=ORIENTED_EDGE('',*,*,#211,.F.);
#274=ORIENTED_EDGE('',*,*,#217,.F.);
#275=ORIENTED_EDGE('',*,*,#218,.T.);
#276=ORIENTED_EDGE('',*,*,#219,.F.);
#277=ORIENTED_EDGE('',*,*,#220,.F.);
#278=ORIENTED_EDGE('',*,*,#221,.F.);
#279=ORIENTED_EDGE('',*,*,#208,.F.);
#280=ORIENTED_EDGE('',*,*,#222,.F.);
#281=ORIENTED_EDGE('',*,*,#215,.F.);
#282=ORIENTED_EDGE('',*,*,#223,.F.);
#283=ORIENTED_EDGE('',*,*,#224,.F.);
#284=ORIENTED_EDGE('',*,*,#225,.F.);
#285=ORIENTED_EDGE('',*,*,#218,.F.);
#286=ORIENTED_EDGE('',*,*,#226,.F.);
#287=ORIENTED_EDGE('',*,*,#227,.F.);
#288=ORIENTED_EDGE('',*,*,#220,.T.);
#289=ORIENTED_EDGE('',*,*,#228,.F.);
#290=ORIENTED_EDGE('',*,*,#224,.T.);
#291=ORIENTED_EDGE('',*,*,#229,.F.);
#292=ORIENTED_EDGE('',*,*,#230,.F.);
#293=ORIENTED_EDGE('',*,*,#231,.F.);
#294=ORIENTED_EDGE('',*,*,#230,.T.);
#295=ORIENTED_EDGE('',*,*,#232,.F.);
#296=ORIENTED_EDGE('',*,*,#213,.F.);
#297=ORIENTED_EDGE('',*,*,#233,.F.);
#298=ORIENTED_EDGE('',*,*,#234,.T.);
#299=ORIENTED_EDGE('',*,*,#235,.F.);
#300=ORIENTED_EDGE('',*,*,#234,.F.);
#301=ORIENTED_EDGE('',*,*,#235,.T.);
#302=ORIENTED_EDGE('',*,*,#236,.F.);
#303=ORIENTED_EDGE('',*,*,#237,.F.);
#304=ORIENTED_EDGE('',*,*,#238,.F.);
#305=ORIENTED_EDGE('',*,*,#239,.T.);
#306=ORIENTED_EDGE('',*,*,#228,.T.);
#307=ORIENTED_EDGE('',*,*,#231,.T.);
#308=ORIENTED_EDGE('',*,*,#212,.T.);
#309=ORIENTED_EDGE('',*,*,#222,.T.);
#310=ORIENTED_EDGE('',*,*,#240,.F.);
#311=ORIENTED_EDGE('',*,*,#239,.F.);
#312=ORIENTED_EDGE('',*,*,#241,.F.);
#313=ORIENTED_EDGE('',*,*,#242,.T.);
#314=ORIENTED_EDGE('',*,*,#243,.F.);
#315=ORIENTED_EDGE('',*,*,#242,.F.);
#316=ORIENTED_EDGE('',*,*,#244,.F.);
#317=ORIENTED_EDGE('',*,*,#245,.T.);
#318=ORIENTED_EDGE('',*,*,#225,.T.);
#319=ORIENTED_EDGE('',*,*,#219,.T.);
#320=ORIENTED_EDGE('',*,*,#207,.T.);
#321=ORIENTED_EDGE('',*,*,#216,.T.);
#322=ORIENTED_EDGE('',*,*,#246,.F.);
#323=ORIENTED_EDGE('',*,*,#245,.F.);
#324=ORIENTED_EDGE('',*,*,#247,.F.);
#325=ORIENTED_EDGE('',*,*,#237,.T.);
#326=ORIENTED_EDGE('',*,*,#236,.T.);
#327=ORIENTED_EDGE('',*,*,#240,.T.);
#328=ORIENTED_EDGE('',*,*,#243,.T.);
#329=ORIENTED_EDGE('',*,*,#246,.T.);
#330=ORIENTED_EDGE('',*,*,#233,.T.);
#331=ORIENTED_EDGE('',*,*,#248,.F.);
#332=ORIENTED_EDGE('',*,*,#238,.T.);
#333=ORIENTED_EDGE('',*,*,#247,.T.);
#334=ORIENTED_EDGE('',*,*,#244,.T.);
#335=ORIENTED_EDGE('',*,*,#241,.T.);
#336=ORIENTED_EDGE('',*,*,#249,.F.);
#337=ORIENTED_EDGE('',*,*,#250,.T.);
#338=ORIENTED_EDGE('',*,*,#226,.T.);
#339=ORIENTED_EDGE('',*,*,#217,.T.);
#340=ORIENTED_EDGE('',*,*,#210,.T.);
#341=ORIENTED_EDGE('',*,*,#251,.T.);
#342=ORIENTED_EDGE('',*,*,#248,.T.);
#343=ORIENTED_EDGE('',*,*,#251,.F.);
#344=ORIENTED_EDGE('',*,*,#209,.T.);
#345=ORIENTED_EDGE('',*,*,#221,.T.);
#346=ORIENTED_EDGE('',*,*,#227,.T.);
#347=ORIENTED_EDGE('',*,*,#250,.F.);
#348=ORIENTED_EDGE('',*,*,#229,.T.);
#349=ORIENTED_EDGE('',*,*,#223,.T.);
#350=ORIENTED_EDGE('',*,*,#214,.T.);
#351=ORIENTED_EDGE('',*,*,#232,.T.);
#352=ORIENTED_EDGE('',*,*,#249,.T.);
#353=ORIENTED_EDGE('',*,*,#206,.F.);
#354=TOROIDAL_SURFACE('',#412,0.22,0.03);
#355=STYLED_ITEM('',(#700),#377);
#356=STYLED_ITEM('',(#700),#378);
#357=STYLED_ITEM('',(#700),#379);
#358=STYLED_ITEM('',(#700),#380);
#359=STYLED_ITEM('',(#700),#381);
#360=STYLED_ITEM('',(#700),#382);
#361=STYLED_ITEM('',(#700),#383);
#362=STYLED_ITEM('',(#700),#384);
#363=STYLED_ITEM('',(#700),#385);
#364=STYLED_ITEM('',(#700),#386);
#365=STYLED_ITEM('',(#700),#387);
#366=STYLED_ITEM('',(#700),#388);
#367=STYLED_ITEM('',(#700),#389);
#368=STYLED_ITEM('',(#700),#390);
#369=STYLED_ITEM('',(#700),#391);
#370=STYLED_ITEM('',(#700),#392);
#371=STYLED_ITEM('',(#700),#393);
#372=STYLED_ITEM('',(#700),#394);
#373=STYLED_ITEM('',(#700),#395);
#374=STYLED_ITEM('',(#700),#396);
#375=STYLED_ITEM('',(#700),#397);
#376=STYLED_ITEM('',(#699),#13);
#377=ADVANCED_FACE('',(#96),#354,.T.);
#378=ADVANCED_FACE('',(#97),#91,.T.);
#379=ADVANCED_FACE('',(#98),#20,.T.);
#380=ADVANCED_FACE('',(#99),#21,.F.);
#381=ADVANCED_FACE('',(#100),#22,.F.);
#382=ADVANCED_FACE('',(#101),#23,.F.);
#383=ADVANCED_FACE('',(#102),#24,.F.);
#384=ADVANCED_FACE('',(#103),#25,.F.);
#385=ADVANCED_FACE('',(#104),#26,.F.);
#386=ADVANCED_FACE('',(#105),#27,.F.);
#387=ADVANCED_FACE('',(#106),#28,.F.);
#388=ADVANCED_FACE('',(#107),#92,.F.);
#389=ADVANCED_FACE('',(#108),#29,.T.);
#390=ADVANCED_FACE('',(#109,#14),#93,.F.);
#391=ADVANCED_FACE('',(#110),#30,.F.);
#392=ADVANCED_FACE('',(#111,#15),#94,.F.);
#393=ADVANCED_FACE('',(#112),#31,.F.);
#394=ADVANCED_FACE('',(#113,#16),#32,.F.);
#395=ADVANCED_FACE('',(#114,#17),#33,.T.);
#396=ADVANCED_FACE('',(#115,#18),#95,.T.);
#397=ADVANCED_FACE('',(#116,#19),#34,.T.);
#398=CLOSED_SHELL('',(#377,#378,#379,#380,#381,#382,#383,#384,#385,#386,
#387,#388,#389,#390,#391,#392,#393,#394,#395,#396,#397));
#399=DERIVED_UNIT_ELEMENT(#401,1.);
#400=DERIVED_UNIT_ELEMENT(#685,-3.);
#401=(
MASS_UNIT()
NAMED_UNIT(*)
SI_UNIT($,.GRAM.)
);
#402=DERIVED_UNIT((#399,#400));
#403=MEASURE_REPRESENTATION_ITEM('density measure',
POSITIVE_RATIO_MEASURE(1.),#402);
#404=PROPERTY_DEFINITION_REPRESENTATION(#409,#406);
#405=PROPERTY_DEFINITION_REPRESENTATION(#410,#407);
#406=REPRESENTATION('material name',(#408),#683);
#407=REPRESENTATION('density',(#403),#683);
#408=DESCRIPTIVE_REPRESENTATION_ITEM('Generic','Generic');
#409=PROPERTY_DEFINITION('material property','material name',#692);
#410=PROPERTY_DEFINITION('material property','density of part',#692);
#411=AXIS2_PLACEMENT_3D('placement',#574,#456,#457);
#412=AXIS2_PLACEMENT_3D('',#575,#458,#459);
#413=AXIS2_PLACEMENT_3D('',#577,#460,#461);
#414=AXIS2_PLACEMENT_3D('',#579,#462,#463);
#415=AXIS2_PLACEMENT_3D('',#581,#464,#465);
#416=AXIS2_PLACEMENT_3D('',#582,#466,#467);
#417=AXIS2_PLACEMENT_3D('',#583,#468,#469);
#418=AXIS2_PLACEMENT_3D('',#586,#471,#472);
#419=AXIS2_PLACEMENT_3D('',#587,#473,#474);
#420=AXIS2_PLACEMENT_3D('',#588,#475,#476);
#421=AXIS2_PLACEMENT_3D('',#591,#477,#478);
#422=AXIS2_PLACEMENT_3D('',#595,#480,#481);
#423=AXIS2_PLACEMENT_3D('',#597,#482,#483);
#424=AXIS2_PLACEMENT_3D('',#599,#485,#486);
#425=AXIS2_PLACEMENT_3D('',#602,#487,#488);
#426=AXIS2_PLACEMENT_3D('',#606,#490,#491);
#427=AXIS2_PLACEMENT_3D('',#608,#493,#494);
#428=AXIS2_PLACEMENT_3D('',#614,#498,#499);
#429=AXIS2_PLACEMENT_3D('',#620,#503,#504);
#430=AXIS2_PLACEMENT_3D('',#626,#508,#509);
#431=AXIS2_PLACEMENT_3D('',#627,#510,#511);
#432=AXIS2_PLACEMENT_3D('',#629,#512,#513);
#433=AXIS2_PLACEMENT_3D('',#630,#514,#515);
#434=AXIS2_PLACEMENT_3D('',#631,#516,#517);
#435=AXIS2_PLACEMENT_3D('',#633,#518,#519);
#436=AXIS2_PLACEMENT_3D('',#635,#520,#521);
#437=AXIS2_PLACEMENT_3D('',#637,#523,#524);
#438=AXIS2_PLACEMENT_3D('',#640,#527,#528);
#439=AXIS2_PLACEMENT_3D('',#642,#529,#530);
#440=AXIS2_PLACEMENT_3D('',#645,#532,#533);
#441=AXIS2_PLACEMENT_3D('',#646,#534,#535);
#442=AXIS2_PLACEMENT_3D('',#647,#536,#537);
#443=AXIS2_PLACEMENT_3D('',#650,#538,#539);
#444=AXIS2_PLACEMENT_3D('',#654,#541,#542);
#445=AXIS2_PLACEMENT_3D('',#656,#544,#545);
#446=AXIS2_PLACEMENT_3D('',#662,#549,#550);
#447=AXIS2_PLACEMENT_3D('',#664,#551,#552);
#448=AXIS2_PLACEMENT_3D('',#666,#553,#554);
#449=AXIS2_PLACEMENT_3D('',#668,#556,#557);
#450=AXIS2_PLACEMENT_3D('',#671,#560,#561);
#451=AXIS2_PLACEMENT_3D('',#672,#562,#563);
#452=AXIS2_PLACEMENT_3D('',#674,#564,#565);
#453=AXIS2_PLACEMENT_3D('',#675,#566,#567);
#454=AXIS2_PLACEMENT_3D('',#677,#568,#569);
#455=AXIS2_PLACEMENT_3D('',#680,#572,#573);
#456=DIRECTION('axis',(0.,0.,1.));
#457=DIRECTION('refdir',(1.,0.,0.));
#458=DIRECTION('center_axis',(0.,1.,0.));
#459=DIRECTION('ref_axis',(0.,0.,1.));
#460=DIRECTION('center_axis',(0.,-1.,0.));
#461=DIRECTION('ref_axis',(1.,0.,1.22464679914735E-16));
#462=DIRECTION('center_axis',(-1.,0.,1.22464679914735E-16));
#463=DIRECTION('ref_axis',(-1.22464679914735E-16,0.,-1.));
#464=DIRECTION('center_axis',(0.,1.,0.));
#465=DIRECTION('ref_axis',(1.,0.,1.22464679914735E-16));
#466=DIRECTION('center_axis',(0.,1.,0.));
#467=DIRECTION('ref_axis',(1.,0.,1.22464679914735E-16));
#468=DIRECTION('center_axis',(0.,1.,0.));
#469=DIRECTION('ref_axis',(-1.,0.,0.));
#470=DIRECTION('',(0.,-1.,0.));
#471=DIRECTION('center_axis',(0.,1.,0.));
#472=DIRECTION('ref_axis',(-1.,0.,0.));
#473=DIRECTION('center_axis',(0.,1.,0.));
#474=DIRECTION('ref_axis',(0.,0.,1.));
#475=DIRECTION('center_axis',(0.,-1.,0.));
#476=DIRECTION('ref_axis',(0.,0.,-1.));
#477=DIRECTION('center_axis',(0.,1.,0.));
#478=DIRECTION('ref_axis',(-0.689655172413793,0.,0.724137931034483));
#479=DIRECTION('',(1.,0.,0.));
#480=DIRECTION('center_axis',(0.,-1.,0.));
#481=DIRECTION('ref_axis',(-1.,0.,0.));
#482=DIRECTION('center_axis',(0.,-1.,0.));
#483=DIRECTION('ref_axis',(-1.,0.,0.));
#484=DIRECTION('',(-1.,0.,0.));
#485=DIRECTION('center_axis',(0.,-1.,0.));
#486=DIRECTION('ref_axis',(0.,0.,-1.));
#487=DIRECTION('center_axis',(0.,1.,0.));
#488=DIRECTION('ref_axis',(0.689655172413793,0.,-0.724137931034483));
#489=DIRECTION('',(-1.,0.,0.));
#490=DIRECTION('center_axis',(0.,-1.,0.));
#491=DIRECTION('ref_axis',(-1.,0.,0.));
#492=DIRECTION('',(1.,0.,0.));
#493=DIRECTION('center_axis',(0.,0.,-1.));
#494=DIRECTION('ref_axis',(-1.,0.,0.));
#495=DIRECTION('',(0.,1.,0.));
#496=DIRECTION('',(0.,-1.,0.));
#497=DIRECTION('',(-1.,0.,0.));
#498=DIRECTION('center_axis',(0.,0.,1.));
#499=DIRECTION('ref_axis',(1.,0.,0.));
#500=DIRECTION('',(0.,-1.,0.));
#501=DIRECTION('',(-1.,0.,0.));
#502=DIRECTION('',(0.,1.,0.));
#503=DIRECTION('center_axis',(0.,0.,1.));
#504=DIRECTION('ref_axis',(1.,0.,0.));
#505=DIRECTION('',(0.,1.,0.));
#506=DIRECTION('',(0.,-1.,0.));
#507=DIRECTION('',(-1.,0.,0.));
#508=DIRECTION('center_axis',(0.,1.,0.));
#509=DIRECTION('ref_axis',(0.,0.,1.));
#510=DIRECTION('center_axis',(0.,-1.,0.));
#511=DIRECTION('ref_axis',(-0.689655172413793,0.,0.724137931034483));
#512=DIRECTION('center_axis',(0.,1.,0.));
#513=DIRECTION('ref_axis',(-1.,0.,0.));
#514=DIRECTION('center_axis',(0.,1.,0.));
#515=DIRECTION('ref_axis',(-1.,0.,0.));
#516=DIRECTION('center_axis',(0.,1.,0.));
#517=DIRECTION('ref_axis',(0.,0.,1.));
#518=DIRECTION('center_axis',(0.,-1.,0.));
#519=DIRECTION('ref_axis',(0.689655172413793,0.,-0.724137931034483));
#520=DIRECTION('center_axis',(0.,1.,0.));
#521=DIRECTION('ref_axis',(-1.,0.,0.));
#522=DIRECTION('',(-1.,0.,0.));
#523=DIRECTION('center_axis',(0.,0.,-1.));
#524=DIRECTION('ref_axis',(-1.,0.,0.));
#525=DIRECTION('',(0.,-1.,0.));
#526=DIRECTION('',(0.,1.,0.));
#527=DIRECTION('center_axis',(0.,1.,0.));
#528=DIRECTION('ref_axis',(1.,0.,0.));
#529=DIRECTION('center_axis',(-1.26154826233024E-47,1.,3.39599253172276E-48));
#530=DIRECTION('ref_axis',(1.,0.,0.));
#531=DIRECTION('',(0.,1.,0.));
#532=DIRECTION('center_axis',(0.,-1.,0.));
#533=DIRECTION('ref_axis',(1.,0.,0.));
#534=DIRECTION('center_axis',(0.,-1.,0.));
#535=DIRECTION('ref_axis',(0.,0.,-1.));
#536=DIRECTION('center_axis',(0.,1.,0.));
#537=DIRECTION('ref_axis',(0.689655172413793,0.,-0.724137931034483));
#538=DIRECTION('center_axis',(0.,-1.,0.));
#539=DIRECTION('ref_axis',(0.689655172413793,0.,-0.724137931034483));
#540=DIRECTION('',(0.,1.,0.));
#541=DIRECTION('center_axis',(0.,1.,0.));
#542=DIRECTION('ref_axis',(0.689655172413793,0.,-0.724137931034483));
#543=DIRECTION('',(0.,1.,0.));
#544=DIRECTION('center_axis',(6.93889390390723E-17,0.,-1.));
#545=DIRECTION('ref_axis',(-1.,0.,-6.93889390390723E-17));
#546=DIRECTION('',(1.,0.,6.93889390390723E-17));
#547=DIRECTION('',(-1.,0.,-6.93889390390723E-17));
#548=DIRECTION('',(0.,1.,0.));
#549=DIRECTION('center_axis',(0.,1.,0.));
#550=DIRECTION('ref_axis',(-0.689655172413793,0.,0.724137931034483));
#551=DIRECTION('center_axis',(0.,-1.,0.));
#552=DIRECTION('ref_axis',(-0.689655172413793,0.,0.724137931034483));
#553=DIRECTION('center_axis',(0.,1.,0.));
#554=DIRECTION('ref_axis',(-0.689655172413793,0.,0.724137931034483));
#555=DIRECTION('',(0.,1.,0.));
#556=DIRECTION('center_axis',(6.93889390390723E-17,0.,1.));
#557=DIRECTION('ref_axis',(1.,0.,-6.93889390390723E-17));
#558=DIRECTION('',(-1.,0.,6.93889390390723E-17));
#559=DIRECTION('',(1.,0.,-6.93889390390723E-17));
#560=DIRECTION('center_axis',(-1.26154826233024E-47,1.,3.39599253172276E-48));
#561=DIRECTION('ref_axis',(0.,-3.39599253172276E-48,1.));
#562=DIRECTION('center_axis',(0.,-1.,0.));
#563=DIRECTION('ref_axis',(0.,0.,-1.));
#564=DIRECTION('center_axis',(0.,1.,0.));
#565=DIRECTION('ref_axis',(-1.,0.,0.));
#566=DIRECTION('center_axis',(0.,1.,0.));
#567=DIRECTION('ref_axis',(-1.,0.,0.));
#568=DIRECTION('center_axis',(0.,1.,0.));
#569=DIRECTION('ref_axis',(-1.,0.,0.));
#570=DIRECTION('',(0.,-1.,0.));
#571=DIRECTION('',(0.,-1.,0.));
#572=DIRECTION('center_axis',(0.,1.,0.));
#573=DIRECTION('ref_axis',(0.,0.,1.));
#574=CARTESIAN_POINT('',(0.,0.,0.));
#575=CARTESIAN_POINT('Origin',(0.,0.55,0.));
#576=CARTESIAN_POINT('',(-2.69422295812418E-17,0.58,-0.22));
#577=CARTESIAN_POINT('Origin',(0.,0.58,0.));
#578=CARTESIAN_POINT('',(-3.06161699786838E-17,0.55,-0.25));
#579=CARTESIAN_POINT('Origin',(-2.69422295812418E-17,0.55,-0.22));
#580=CARTESIAN_POINT('',(0.25,0.55,-3.06161699786838E-17));
#581=CARTESIAN_POINT('Origin',(0.,0.55,0.));
#582=CARTESIAN_POINT('Origin',(0.,0.55,0.));
#583=CARTESIAN_POINT('Origin',(0.,0.405,0.));
#584=CARTESIAN_POINT('',(0.25,0.23,-3.06161699786838E-17));
#585=CARTESIAN_POINT('',(0.25,0.405,-3.06161699786838E-17));
#586=CARTESIAN_POINT('Origin',(0.,0.23,0.));
#587=CARTESIAN_POINT('Origin',(-0.125,0.58,0.));
#588=CARTESIAN_POINT('Origin',(0.,0.085,-0.125));
#589=CARTESIAN_POINT('',(0.261677282162591,0.085,0.125));
#590=CARTESIAN_POINT('',(0.261677282162591,0.085,-0.125));
#591=CARTESIAN_POINT('Origin',(0.,0.085,0.));
#592=CARTESIAN_POINT('',(0.379967103839267,0.085,0.125));
#593=CARTESIAN_POINT('',(0.,0.085,0.125));
#594=CARTESIAN_POINT('',(0.4,0.085,-4.89858719658941E-17));
#595=CARTESIAN_POINT('Origin',(0.,0.085,0.));
#596=CARTESIAN_POINT('',(0.379967103839267,0.085,-0.125));
#597=CARTESIAN_POINT('Origin',(0.,0.085,0.));
#598=CARTESIAN_POINT('',(0.,0.085,-0.125));
#599=CARTESIAN_POINT('Origin',(0.,0.085,-0.125));
#600=CARTESIAN_POINT('',(-0.261677282162591,0.085,-0.125));
#601=CARTESIAN_POINT('',(-0.261677282162591,0.085,0.125));
#602=CARTESIAN_POINT('Origin',(0.,0.085,0.));
#603=CARTESIAN_POINT('',(-0.379967103839267,0.085,-0.125));
#604=CARTESIAN_POINT('',(0.,0.085,-0.125));
#605=CARTESIAN_POINT('',(-0.379967103839267,0.085,0.125));
#606=CARTESIAN_POINT('Origin',(0.,0.085,0.));
#607=CARTESIAN_POINT('',(0.,0.085,0.125));
#608=CARTESIAN_POINT('Origin',(0.,0.145,-0.125));
#609=CARTESIAN_POINT('',(0.261677282162591,0.145,-0.125));
#610=CARTESIAN_POINT('',(0.261677282162591,-2.77555756156289E-17,-0.125));
#611=CARTESIAN_POINT('',(0.379967103839267,0.145,-0.125));
#612=CARTESIAN_POINT('',(0.379967103839267,0.115,-0.125));
#613=CARTESIAN_POINT('',(0.,0.145,-0.125));
#614=CARTESIAN_POINT('Origin',(0.,0.085,0.125));
#615=CARTESIAN_POINT('',(0.261677282162591,0.145,0.125));
#616=CARTESIAN_POINT('',(0.261677282162591,-4.16333634234434E-17,0.125));
#617=CARTESIAN_POINT('',(0.379967103839267,0.145,0.125));
#618=CARTESIAN_POINT('',(0.,0.145,0.125));
#619=CARTESIAN_POINT('',(0.379967103839267,0.115,0.125));
#620=CARTESIAN_POINT('Origin',(0.,0.085,0.125));
#621=CARTESIAN_POINT('',(-0.261677282162591,0.145,0.125));
#622=CARTESIAN_POINT('',(-0.261677282162591,-4.16333634234434E-17,0.125));
#623=CARTESIAN_POINT('',(-0.379967103839267,0.145,0.125));
#624=CARTESIAN_POINT('',(-0.379967103839267,0.115,0.125));
#625=CARTESIAN_POINT('',(0.,0.145,0.125));
#626=CARTESIAN_POINT('Origin',(0.,0.145,0.125));
#627=CARTESIAN_POINT('Origin',(0.,0.145,0.));
#628=CARTESIAN_POINT('',(0.4,0.145,-4.89858719658941E-17));
#629=CARTESIAN_POINT('Origin',(0.,0.145,0.));
#630=CARTESIAN_POINT('Origin',(0.,0.145,0.));
#631=CARTESIAN_POINT('Origin',(0.,0.145,0.125));
#632=CARTESIAN_POINT('',(-0.261677282162591,0.145,-0.125));
#633=CARTESIAN_POINT('Origin',(0.,0.145,0.));
#634=CARTESIAN_POINT('',(-0.379967103839267,0.145,-0.125));
#635=CARTESIAN_POINT('Origin',(0.,0.145,0.));
#636=CARTESIAN_POINT('',(0.,0.145,-0.125));
#637=CARTESIAN_POINT('Origin',(0.,0.145,-0.125));
#638=CARTESIAN_POINT('',(-0.261677282162591,-2.77555756156289E-17,-0.125));
#639=CARTESIAN_POINT('',(-0.379967103839267,0.115,-0.125));
#640=CARTESIAN_POINT('Origin',(0.,0.,0.));
#641=CARTESIAN_POINT('',(-0.15,0.16,1.83690953073357E-17));
#642=CARTESIAN_POINT('Origin',(0.,0.16,0.));
#643=CARTESIAN_POINT('',(-0.15,0.49,1.83690953073357E-17));
#644=CARTESIAN_POINT('',(-0.15,0.,1.83697019872103E-17));
#645=CARTESIAN_POINT('Origin',(0.,0.49,0.));
#646=CARTESIAN_POINT('Origin',(0.,0.49,0.));
#647=CARTESIAN_POINT('Origin',(0.,-3.67381906146713E-17,0.));
#648=CARTESIAN_POINT('',(-0.2,0.16,0.21));
#649=CARTESIAN_POINT('',(-0.2,0.16,-0.21));
#650=CARTESIAN_POINT('Origin',(0.,0.16,0.));
#651=CARTESIAN_POINT('',(-0.2,-3.67381906146713E-17,0.21));
#652=CARTESIAN_POINT('',(-0.2,-3.67381906146713E-17,0.21));
#653=CARTESIAN_POINT('',(-0.2,-3.67381906146713E-17,-0.21));
#654=CARTESIAN_POINT('Origin',(0.,-3.67381906146713E-17,0.));
#655=CARTESIAN_POINT('',(-0.2,-3.67381906146713E-17,-0.21));
#656=CARTESIAN_POINT('Origin',(-0.2,-3.67381906146713E-17,-0.21));
#657=CARTESIAN_POINT('',(0.2,0.16,-0.21));
#658=CARTESIAN_POINT('',(0.2,0.16,-0.21));
#659=CARTESIAN_POINT('',(0.2,-3.67381906146713E-17,-0.21));
#660=CARTESIAN_POINT('',(-0.2,-3.67381906146713E-17,-0.21));
#661=CARTESIAN_POINT('',(0.2,-3.67381906146713E-17,-0.21));
#662=CARTESIAN_POINT('Origin',(0.,-3.67381906146713E-17,0.));
#663=CARTESIAN_POINT('',(0.2,0.16,0.21));
#664=CARTESIAN_POINT('Origin',(0.,0.16,0.));
#665=CARTESIAN_POINT('',(0.2,-3.67381906146713E-17,0.21));
#666=CARTESIAN_POINT('Origin',(0.,-3.67381906146713E-17,0.));
#667=CARTESIAN_POINT('',(0.2,-3.67381906146713E-17,0.21));
#668=CARTESIAN_POINT('Origin',(0.2,-3.67381906146713E-17,0.21));
#669=CARTESIAN_POINT('',(-0.2,0.16,0.21));
#670=CARTESIAN_POINT('',(-6.59194920871187E-18,-3.67381906146713E-17,0.21));
#671=CARTESIAN_POINT('Origin',(-1.38777878078145E-17,0.16,6.25754777732384E-18));
#672=CARTESIAN_POINT('Origin',(-0.2,-3.67381906146713E-17,0.));
#673=CARTESIAN_POINT('',(0.4,-1.11022302462516E-16,-4.89858719658941E-17));
#674=CARTESIAN_POINT('Origin',(0.,-1.11022302462516E-16,0.));
#675=CARTESIAN_POINT('Origin',(0.,0.115,0.));
#676=CARTESIAN_POINT('',(0.4,0.23,-4.89858719658941E-17));
#677=CARTESIAN_POINT('Origin',(0.,0.23,0.));
#678=CARTESIAN_POINT('',(0.4,0.115,-4.89858719658941E-17));
#679=CARTESIAN_POINT('',(0.4,0.115,-4.89858719658941E-17));
#680=CARTESIAN_POINT('Origin',(-0.325,0.23,0.));
#681=UNCERTAINTY_MEASURE_WITH_UNIT(LENGTH_MEASURE(0.001),#685,
'DISTANCE_ACCURACY_VALUE',
'Maximum model space distance between geometric entities at asserted c
onnectivities');
#682=UNCERTAINTY_MEASURE_WITH_UNIT(LENGTH_MEASURE(0.001),#685,
'DISTANCE_ACCURACY_VALUE',
'Maximum model space distance between geometric entities at asserted c
onnectivities');
#683=(
GEOMETRIC_REPRESENTATION_CONTEXT(3)
GLOBAL_UNCERTAINTY_ASSIGNED_CONTEXT((#681))
GLOBAL_UNIT_ASSIGNED_CONTEXT((#685,#686,#687))
REPRESENTATION_CONTEXT('','3D')
);
#684=(
GEOMETRIC_REPRESENTATION_CONTEXT(3)
GLOBAL_UNCERTAINTY_ASSIGNED_CONTEXT((#682))
GLOBAL_UNIT_ASSIGNED_CONTEXT((#685,#686,#687))
REPRESENTATION_CONTEXT('','3D')
);
#685=(
LENGTH_UNIT()
NAMED_UNIT(*)
SI_UNIT(.CENTI.,.METRE.)
);
#686=(
NAMED_UNIT(*)
PLANE_ANGLE_UNIT()
SI_UNIT($,.RADIAN.)
);
#687=(
NAMED_UNIT(*)
SI_UNIT($,.STERADIAN.)
SOLID_ANGLE_UNIT()
);
#688=SHAPE_DEFINITION_REPRESENTATION(#689,#690);
#689=PRODUCT_DEFINITION_SHAPE('',$,#692);
#690=SHAPE_REPRESENTATION('',(#411),#683);
#691=PRODUCT_DEFINITION_CONTEXT('part definition',#696,'design');
#692=PRODUCT_DEFINITION('TL3265SBTNCLR','TL3265SBTNCLR',#693,#691);
#693=PRODUCT_DEFINITION_FORMATION('',$,#698);
#694=PRODUCT_RELATED_PRODUCT_CATEGORY('TL3265SBTNCLR','TL3265SBTNCLR',(#698));
#695=APPLICATION_PROTOCOL_DEFINITION('international standard',
'automotive_design',2009,#696);
#696=APPLICATION_CONTEXT(
'Core Data for Automotive Mechanical Design Process');
#697=PRODUCT_CONTEXT('part definition',#696,'mechanical');
#698=PRODUCT('TL3265SBTNCLR','TL3265SBTNCLR',$,(#697));
#699=PRESENTATION_STYLE_ASSIGNMENT((#701));
#700=PRESENTATION_STYLE_ASSIGNMENT((#702));
#701=SURFACE_STYLE_USAGE(.BOTH.,#707);
#702=SURFACE_STYLE_USAGE(.BOTH.,#708);
#703=SURFACE_STYLE_RENDERING_WITH_PROPERTIES($,#715,(#705));
#704=SURFACE_STYLE_RENDERING_WITH_PROPERTIES($,#716,(#706));
#705=SURFACE_STYLE_TRANSPARENT(0.);
#706=SURFACE_STYLE_TRANSPARENT(0.420000016689301);
#707=SURFACE_SIDE_STYLE('',(#709,#703));
#708=SURFACE_SIDE_STYLE('',(#710,#704));
#709=SURFACE_STYLE_FILL_AREA(#711);
#710=SURFACE_STYLE_FILL_AREA(#712);
#711=FILL_AREA_STYLE('',(#713));
#712=FILL_AREA_STYLE('',(#714));
#713=FILL_AREA_STYLE_COLOUR('',#715);
#714=FILL_AREA_STYLE_COLOUR('',#716);
#715=COLOUR_RGB('',0.749019607843137,0.749019607843137,0.749019607843137);
#716=COLOUR_RGB('',0.8,0.8,0.8);
ENDSEC;
END-ISO-10303-21;
