ISO-10303-21;
HEADER;
/* Generated by software containing ST-Developer
 * from STEP Tools, Inc. (www.steptools.com) 
 */

FILE_DESCRIPTION(
/* description */ (''),
/* implementation_level */ '2;1');

FILE_NAME(
/* name */ 'C:\\myloadpoint\\New-STEP-Files\\TL3265TBTNCLR.stp',
/* time_stamp */ '2025-06-04T11:13:27-05:00',
/* author */ ('mroman'),
/* organization */ (''),
/* preprocessor_version */ 'ST-DEVELOPER v18.1',
/* originating_system */ 'Autodesk Inventor 2022',
/* authorisation */ '');

FILE_SCHEMA (('AUTOMOTIVE_DESIGN { 1 0 10303 214 3 1 1 }'));
ENDSEC;

DATA;
#10=MECHANICAL_DESIGN_GEOMETRIC_PRESENTATION_REPRESENTATION('',(#364,#365,
#366,#367,#368,#369,#370,#371,#372,#373,#374,#375,#376,#377,#378,#379,#380,
#381,#382,#383,#384,#385,#386),#691);
#11=SHAPE_REPRESENTATION_RELATIONSHIP('SRR','None',#697,#12);
#12=ADVANCED_BREP_SHAPE_REPRESENTATION('',(#13),#690);
#13=MANIFOLD_SOLID_BREP('Solid1',#409);
#14=CYLINDRICAL_SURFACE('',#439,0.235);
#15=CYLINDRICAL_SURFACE('',#452,0.15);
#16=CYLINDRICAL_SURFACE('',#456,0.29);
#17=CYLINDRICAL_SURFACE('',#459,0.29);
#18=CYLINDRICAL_SURFACE('',#463,0.375);
#19=TOROIDAL_SURFACE('',#434,0.205,0.03);
#20=CIRCLE('',#425,0.375);
#21=CIRCLE('',#426,0.29);
#22=CIRCLE('',#427,0.29);
#23=CIRCLE('',#429,0.375);
#24=CIRCLE('',#430,0.235);
#25=CIRCLE('',#432,0.29);
#26=CIRCLE('',#435,0.205);
#27=CIRCLE('',#436,0.03);
#28=CIRCLE('',#437,0.235);
#29=CIRCLE('',#438,0.235);
#30=CIRCLE('',#442,0.29);
#31=CIRCLE('',#444,0.29);
#32=CIRCLE('',#445,0.375);
#33=CIRCLE('',#449,0.29);
#34=CIRCLE('',#450,0.375);
#35=CIRCLE('',#453,0.15);
#36=CIRCLE('',#454,0.15);
#37=CIRCLE('',#457,0.29);
#38=CIRCLE('',#460,0.29);
#39=FACE_BOUND('',#69,.T.);
#40=FACE_BOUND('',#71,.T.);
#41=FACE_BOUND('',#73,.T.);
#42=FACE_BOUND('',#88,.T.);
#43=FACE_BOUND('',#91,.T.);
#44=FACE_BOUND('',#94,.T.);
#45=FACE_BOUND('',#96,.T.);
#46=FACE_OUTER_BOUND('',#68,.T.);
#47=FACE_OUTER_BOUND('',#70,.T.);
#48=FACE_OUTER_BOUND('',#72,.T.);
#49=FACE_OUTER_BOUND('',#74,.T.);
#50=FACE_OUTER_BOUND('',#75,.T.);
#51=FACE_OUTER_BOUND('',#76,.T.);
#52=FACE_OUTER_BOUND('',#77,.T.);
#53=FACE_OUTER_BOUND('',#78,.T.);
#54=FACE_OUTER_BOUND('',#79,.T.);
#55=FACE_OUTER_BOUND('',#80,.T.);
#56=FACE_OUTER_BOUND('',#81,.T.);
#57=FACE_OUTER_BOUND('',#82,.T.);
#58=FACE_OUTER_BOUND('',#83,.T.);
#59=FACE_OUTER_BOUND('',#84,.T.);
#60=FACE_OUTER_BOUND('',#85,.T.);
#61=FACE_OUTER_BOUND('',#86,.T.);
#62=FACE_OUTER_BOUND('',#87,.T.);
#63=FACE_OUTER_BOUND('',#89,.T.);
#64=FACE_OUTER_BOUND('',#90,.T.);
#65=FACE_OUTER_BOUND('',#92,.T.);
#66=FACE_OUTER_BOUND('',#93,.T.);
#67=FACE_OUTER_BOUND('',#95,.T.);
#68=EDGE_LOOP('',(#246,#247,#248,#249));
#69=EDGE_LOOP('',(#250,#251,#252,#253));
#70=EDGE_LOOP('',(#254,#255));
#71=EDGE_LOOP('',(#256,#257,#258,#259));
#72=EDGE_LOOP('',(#260,#261));
#73=EDGE_LOOP('',(#262));
#74=EDGE_LOOP('',(#263,#264,#265,#266));
#75=EDGE_LOOP('',(#267,#268,#269,#270));
#76=EDGE_LOOP('',(#271,#272,#273,#274,#275));
#77=EDGE_LOOP('',(#276,#277,#278,#279,#280));
#78=EDGE_LOOP('',(#281));
#79=EDGE_LOOP('',(#282,#283,#284,#285));
#80=EDGE_LOOP('',(#286,#287,#288,#289));
#81=EDGE_LOOP('',(#290,#291,#292,#293));
#82=EDGE_LOOP('',(#294,#295,#296,#297));
#83=EDGE_LOOP('',(#298,#299,#300,#301));
#84=EDGE_LOOP('',(#302,#303,#304,#305));
#85=EDGE_LOOP('',(#306,#307,#308,#309));
#86=EDGE_LOOP('',(#310));
#87=EDGE_LOOP('',(#311,#312,#313,#314));
#88=EDGE_LOOP('',(#315,#316,#317,#318));
#89=EDGE_LOOP('',(#319,#320,#321,#322));
#90=EDGE_LOOP('',(#323,#324,#325,#326));
#91=EDGE_LOOP('',(#327,#328,#329,#330));
#92=EDGE_LOOP('',(#331,#332,#333,#334));
#93=EDGE_LOOP('',(#335,#336,#337,#338));
#94=EDGE_LOOP('',(#339));
#95=EDGE_LOOP('',(#340,#341,#342,#343));
#96=EDGE_LOOP('',(#344,#345,#346,#347));
#97=LINE('',#584,#129);
#98=LINE('',#586,#130);
#99=LINE('',#588,#131);
#100=LINE('',#589,#132);
#101=LINE('',#592,#133);
#102=LINE('',#594,#134);
#103=LINE('',#596,#135);
#104=LINE('',#597,#136);
#105=LINE('',#604,#137);
#106=LINE('',#607,#138);
#107=LINE('',#614,#139);
#108=LINE('',#617,#140);
#109=LINE('',#620,#141);
#110=LINE('',#621,#142);
#111=LINE('',#631,#143);
#112=LINE('',#635,#144);
#113=LINE('',#642,#145);
#114=LINE('',#645,#146);
#115=LINE('',#647,#147);
#116=LINE('',#650,#148);
#117=LINE('',#652,#149);
#118=LINE('',#653,#150);
#119=LINE('',#659,#151);
#120=LINE('',#661,#152);
#121=LINE('',#662,#153);
#122=LINE('',#667,#154);
#123=LINE('',#674,#155);
#124=LINE('',#675,#156);
#125=LINE('',#678,#157);
#126=LINE('',#679,#158);
#127=LINE('',#683,#159);
#128=LINE('',#685,#160);
#129=VECTOR('',#468,1.);
#130=VECTOR('',#469,1.);
#131=VECTOR('',#470,1.);
#132=VECTOR('',#471,1.);
#133=VECTOR('',#472,1.);
#134=VECTOR('',#473,1.);
#135=VECTOR('',#474,1.);
#136=VECTOR('',#475,1.);
#137=VECTOR('',#482,1.);
#138=VECTOR('',#485,1.);
#139=VECTOR('',#494,1.);
#140=VECTOR('',#497,1.);
#141=VECTOR('',#500,1.);
#142=VECTOR('',#501,1.);
#143=VECTOR('',#514,0.235);
#144=VECTOR('',#519,1.);
#145=VECTOR('',#526,1.);
#146=VECTOR('',#529,1.);
#147=VECTOR('',#532,1.);
#148=VECTOR('',#535,1.);
#149=VECTOR('',#536,1.);
#150=VECTOR('',#537,1.);
#151=VECTOR('',#544,1.);
#152=VECTOR('',#547,1.);
#153=VECTOR('',#548,1.);
#154=VECTOR('',#553,0.15);
#155=VECTOR('',#562,1.);
#156=VECTOR('',#563,1.);
#157=VECTOR('',#566,1.);
#158=VECTOR('',#567,1.);
#159=VECTOR('',#572,1.);
#160=VECTOR('',#575,1.);
#161=VERTEX_POINT('',#582);
#162=VERTEX_POINT('',#583);
#163=VERTEX_POINT('',#585);
#164=VERTEX_POINT('',#587);
#165=VERTEX_POINT('',#590);
#166=VERTEX_POINT('',#591);
#167=VERTEX_POINT('',#593);
#168=VERTEX_POINT('',#595);
#169=VERTEX_POINT('',#600);
#170=VERTEX_POINT('',#601);
#171=VERTEX_POINT('',#603);
#172=VERTEX_POINT('',#605);
#173=VERTEX_POINT('',#610);
#174=VERTEX_POINT('',#613);
#175=VERTEX_POINT('',#615);
#176=VERTEX_POINT('',#619);
#177=VERTEX_POINT('',#623);
#178=VERTEX_POINT('',#625);
#179=VERTEX_POINT('',#627);
#180=VERTEX_POINT('',#634);
#181=VERTEX_POINT('',#638);
#182=VERTEX_POINT('',#639);
#183=VERTEX_POINT('',#641);
#184=VERTEX_POINT('',#643);
#185=VERTEX_POINT('',#649);
#186=VERTEX_POINT('',#651);
#187=VERTEX_POINT('',#655);
#188=VERTEX_POINT('',#657);
#189=VERTEX_POINT('',#664);
#190=VERTEX_POINT('',#666);
#191=VERTEX_POINT('',#671);
#192=VERTEX_POINT('',#672);
#193=VERTEX_POINT('',#677);
#194=VERTEX_POINT('',#681);
#195=EDGE_CURVE('',#161,#162,#97,.T.);
#196=EDGE_CURVE('',#163,#161,#98,.T.);
#197=EDGE_CURVE('',#164,#163,#99,.T.);
#198=EDGE_CURVE('',#162,#164,#100,.T.);
#199=EDGE_CURVE('',#165,#166,#101,.T.);
#200=EDGE_CURVE('',#167,#165,#102,.T.);
#201=EDGE_CURVE('',#168,#167,#103,.T.);
#202=EDGE_CURVE('',#166,#168,#104,.T.);
#203=EDGE_CURVE('',#161,#162,#20,.T.);
#204=EDGE_CURVE('',#169,#170,#21,.T.);
#205=EDGE_CURVE('',#170,#171,#105,.T.);
#206=EDGE_CURVE('',#171,#172,#22,.T.);
#207=EDGE_CURVE('',#172,#169,#106,.T.);
#208=EDGE_CURVE('',#163,#164,#23,.T.);
#209=EDGE_CURVE('',#173,#173,#24,.T.);
#210=EDGE_CURVE('',#167,#174,#107,.T.);
#211=EDGE_CURVE('',#175,#174,#25,.T.);
#212=EDGE_CURVE('',#168,#175,#108,.T.);
#213=EDGE_CURVE('',#176,#165,#109,.T.);
#214=EDGE_CURVE('',#174,#176,#110,.T.);
#215=EDGE_CURVE('',#177,#177,#26,.T.);
#216=EDGE_CURVE('',#177,#178,#27,.T.);
#217=EDGE_CURVE('',#178,#179,#28,.T.);
#218=EDGE_CURVE('',#179,#178,#29,.T.);
#219=EDGE_CURVE('',#179,#173,#111,.T.);
#220=EDGE_CURVE('',#166,#180,#112,.T.);
#221=EDGE_CURVE('',#176,#180,#30,.T.);
#222=EDGE_CURVE('',#181,#182,#31,.T.);
#223=EDGE_CURVE('',#181,#183,#113,.T.);
#224=EDGE_CURVE('',#184,#183,#32,.T.);
#225=EDGE_CURVE('',#184,#182,#114,.T.);
#226=EDGE_CURVE('',#180,#175,#115,.T.);
#227=EDGE_CURVE('',#182,#185,#116,.T.);
#228=EDGE_CURVE('',#186,#184,#117,.T.);
#229=EDGE_CURVE('',#185,#186,#118,.T.);
#230=EDGE_CURVE('',#185,#187,#33,.T.);
#231=EDGE_CURVE('',#188,#186,#34,.T.);
#232=EDGE_CURVE('',#187,#188,#119,.T.);
#233=EDGE_CURVE('',#187,#181,#120,.T.);
#234=EDGE_CURVE('',#183,#188,#121,.T.);
#235=EDGE_CURVE('',#189,#189,#35,.T.);
#236=EDGE_CURVE('',#189,#190,#122,.T.);
#237=EDGE_CURVE('',#190,#190,#36,.T.);
#238=EDGE_CURVE('',#191,#192,#37,.T.);
#239=EDGE_CURVE('',#170,#191,#123,.T.);
#240=EDGE_CURVE('',#169,#192,#124,.T.);
#241=EDGE_CURVE('',#192,#193,#125,.T.);
#242=EDGE_CURVE('',#172,#193,#126,.T.);
#243=EDGE_CURVE('',#193,#194,#38,.T.);
#244=EDGE_CURVE('',#171,#194,#127,.T.);
#245=EDGE_CURVE('',#194,#191,#128,.T.);
#246=ORIENTED_EDGE('',*,*,#195,.F.);
#247=ORIENTED_EDGE('',*,*,#196,.F.);
#248=ORIENTED_EDGE('',*,*,#197,.F.);
#249=ORIENTED_EDGE('',*,*,#198,.F.);
#250=ORIENTED_EDGE('',*,*,#199,.F.);
#251=ORIENTED_EDGE('',*,*,#200,.F.);
#252=ORIENTED_EDGE('',*,*,#201,.F.);
#253=ORIENTED_EDGE('',*,*,#202,.F.);
#254=ORIENTED_EDGE('',*,*,#195,.T.);
#255=ORIENTED_EDGE('',*,*,#203,.F.);
#256=ORIENTED_EDGE('',*,*,#204,.T.);
#257=ORIENTED_EDGE('',*,*,#205,.T.);
#258=ORIENTED_EDGE('',*,*,#206,.T.);
#259=ORIENTED_EDGE('',*,*,#207,.T.);
#260=ORIENTED_EDGE('',*,*,#197,.T.);
#261=ORIENTED_EDGE('',*,*,#208,.T.);
#262=ORIENTED_EDGE('',*,*,#209,.F.);
#263=ORIENTED_EDGE('',*,*,#201,.T.);
#264=ORIENTED_EDGE('',*,*,#210,.T.);
#265=ORIENTED_EDGE('',*,*,#211,.F.);
#266=ORIENTED_EDGE('',*,*,#212,.F.);
#267=ORIENTED_EDGE('',*,*,#200,.T.);
#268=ORIENTED_EDGE('',*,*,#213,.F.);
#269=ORIENTED_EDGE('',*,*,#214,.F.);
#270=ORIENTED_EDGE('',*,*,#210,.F.);
#271=ORIENTED_EDGE('',*,*,#215,.T.);
#272=ORIENTED_EDGE('',*,*,#216,.T.);
#273=ORIENTED_EDGE('',*,*,#217,.T.);
#274=ORIENTED_EDGE('',*,*,#218,.T.);
#275=ORIENTED_EDGE('',*,*,#216,.F.);
#276=ORIENTED_EDGE('',*,*,#217,.F.);
#277=ORIENTED_EDGE('',*,*,#218,.F.);
#278=ORIENTED_EDGE('',*,*,#219,.T.);
#279=ORIENTED_EDGE('',*,*,#209,.T.);
#280=ORIENTED_EDGE('',*,*,#219,.F.);
#281=ORIENTED_EDGE('',*,*,#215,.F.);
#282=ORIENTED_EDGE('',*,*,#199,.T.);
#283=ORIENTED_EDGE('',*,*,#220,.T.);
#284=ORIENTED_EDGE('',*,*,#221,.F.);
#285=ORIENTED_EDGE('',*,*,#213,.T.);
#286=ORIENTED_EDGE('',*,*,#222,.F.);
#287=ORIENTED_EDGE('',*,*,#223,.T.);
#288=ORIENTED_EDGE('',*,*,#224,.F.);
#289=ORIENTED_EDGE('',*,*,#225,.T.);
#290=ORIENTED_EDGE('',*,*,#202,.T.);
#291=ORIENTED_EDGE('',*,*,#212,.T.);
#292=ORIENTED_EDGE('',*,*,#226,.F.);
#293=ORIENTED_EDGE('',*,*,#220,.F.);
#294=ORIENTED_EDGE('',*,*,#227,.F.);
#295=ORIENTED_EDGE('',*,*,#225,.F.);
#296=ORIENTED_EDGE('',*,*,#228,.F.);
#297=ORIENTED_EDGE('',*,*,#229,.F.);
#298=ORIENTED_EDGE('',*,*,#230,.F.);
#299=ORIENTED_EDGE('',*,*,#229,.T.);
#300=ORIENTED_EDGE('',*,*,#231,.F.);
#301=ORIENTED_EDGE('',*,*,#232,.F.);
#302=ORIENTED_EDGE('',*,*,#233,.F.);
#303=ORIENTED_EDGE('',*,*,#232,.T.);
#304=ORIENTED_EDGE('',*,*,#234,.F.);
#305=ORIENTED_EDGE('',*,*,#223,.F.);
#306=ORIENTED_EDGE('',*,*,#235,.F.);
#307=ORIENTED_EDGE('',*,*,#236,.T.);
#308=ORIENTED_EDGE('',*,*,#237,.F.);
#309=ORIENTED_EDGE('',*,*,#236,.F.);
#310=ORIENTED_EDGE('',*,*,#237,.T.);
#311=ORIENTED_EDGE('',*,*,#238,.F.);
#312=ORIENTED_EDGE('',*,*,#239,.F.);
#313=ORIENTED_EDGE('',*,*,#204,.F.);
#314=ORIENTED_EDGE('',*,*,#240,.T.);
#315=ORIENTED_EDGE('',*,*,#230,.T.);
#316=ORIENTED_EDGE('',*,*,#233,.T.);
#317=ORIENTED_EDGE('',*,*,#222,.T.);
#318=ORIENTED_EDGE('',*,*,#227,.T.);
#319=ORIENTED_EDGE('',*,*,#241,.F.);
#320=ORIENTED_EDGE('',*,*,#240,.F.);
#321=ORIENTED_EDGE('',*,*,#207,.F.);
#322=ORIENTED_EDGE('',*,*,#242,.T.);
#323=ORIENTED_EDGE('',*,*,#243,.F.);
#324=ORIENTED_EDGE('',*,*,#242,.F.);
#325=ORIENTED_EDGE('',*,*,#206,.F.);
#326=ORIENTED_EDGE('',*,*,#244,.T.);
#327=ORIENTED_EDGE('',*,*,#211,.T.);
#328=ORIENTED_EDGE('',*,*,#214,.T.);
#329=ORIENTED_EDGE('',*,*,#221,.T.);
#330=ORIENTED_EDGE('',*,*,#226,.T.);
#331=ORIENTED_EDGE('',*,*,#245,.F.);
#332=ORIENTED_EDGE('',*,*,#244,.F.);
#333=ORIENTED_EDGE('',*,*,#205,.F.);
#334=ORIENTED_EDGE('',*,*,#239,.T.);
#335=ORIENTED_EDGE('',*,*,#238,.T.);
#336=ORIENTED_EDGE('',*,*,#241,.T.);
#337=ORIENTED_EDGE('',*,*,#243,.T.);
#338=ORIENTED_EDGE('',*,*,#245,.T.);
#339=ORIENTED_EDGE('',*,*,#235,.T.);
#340=ORIENTED_EDGE('',*,*,#196,.T.);
#341=ORIENTED_EDGE('',*,*,#203,.T.);
#342=ORIENTED_EDGE('',*,*,#198,.T.);
#343=ORIENTED_EDGE('',*,*,#208,.F.);
#344=ORIENTED_EDGE('',*,*,#231,.T.);
#345=ORIENTED_EDGE('',*,*,#228,.T.);
#346=ORIENTED_EDGE('',*,*,#224,.T.);
#347=ORIENTED_EDGE('',*,*,#234,.T.);
#348=PLANE('',#423);
#349=PLANE('',#424);
#350=PLANE('',#428);
#351=PLANE('',#431);
#352=PLANE('',#433);
#353=PLANE('',#440);
#354=PLANE('',#441);
#355=PLANE('',#443);
#356=PLANE('',#446);
#357=PLANE('',#447);
#358=PLANE('',#448);
#359=PLANE('',#451);
#360=PLANE('',#455);
#361=PLANE('',#458);
#362=PLANE('',#461);
#363=PLANE('',#462);
#364=STYLED_ITEM('',(#707),#387);
#365=STYLED_ITEM('',(#707),#388);
#366=STYLED_ITEM('',(#707),#389);
#367=STYLED_ITEM('',(#707),#390);
#368=STYLED_ITEM('',(#707),#391);
#369=STYLED_ITEM('',(#707),#392);
#370=STYLED_ITEM('',(#707),#393);
#371=STYLED_ITEM('',(#707),#394);
#372=STYLED_ITEM('',(#707),#395);
#373=STYLED_ITEM('',(#707),#396);
#374=STYLED_ITEM('',(#707),#397);
#375=STYLED_ITEM('',(#707),#398);
#376=STYLED_ITEM('',(#707),#399);
#377=STYLED_ITEM('',(#707),#400);
#378=STYLED_ITEM('',(#707),#401);
#379=STYLED_ITEM('',(#707),#402);
#380=STYLED_ITEM('',(#707),#403);
#381=STYLED_ITEM('',(#707),#404);
#382=STYLED_ITEM('',(#707),#405);
#383=STYLED_ITEM('',(#707),#406);
#384=STYLED_ITEM('',(#707),#407);
#385=STYLED_ITEM('',(#707),#408);
#386=STYLED_ITEM('',(#706),#13);
#387=ADVANCED_FACE('',(#46,#39),#348,.F.);
#388=ADVANCED_FACE('',(#47,#40),#349,.T.);
#389=ADVANCED_FACE('',(#48,#41),#350,.T.);
#390=ADVANCED_FACE('',(#49),#351,.F.);
#391=ADVANCED_FACE('',(#50),#352,.F.);
#392=ADVANCED_FACE('',(#51),#19,.T.);
#393=ADVANCED_FACE('',(#52),#14,.T.);
#394=ADVANCED_FACE('',(#53),#353,.T.);
#395=ADVANCED_FACE('',(#54),#354,.F.);
#396=ADVANCED_FACE('',(#55),#355,.F.);
#397=ADVANCED_FACE('',(#56),#356,.F.);
#398=ADVANCED_FACE('',(#57),#357,.F.);
#399=ADVANCED_FACE('',(#58),#358,.F.);
#400=ADVANCED_FACE('',(#59),#359,.F.);
#401=ADVANCED_FACE('',(#60),#15,.F.);
#402=ADVANCED_FACE('',(#61),#360,.T.);
#403=ADVANCED_FACE('',(#62,#42),#16,.F.);
#404=ADVANCED_FACE('',(#63),#361,.F.);
#405=ADVANCED_FACE('',(#64,#43),#17,.F.);
#406=ADVANCED_FACE('',(#65),#362,.F.);
#407=ADVANCED_FACE('',(#66,#44),#363,.F.);
#408=ADVANCED_FACE('',(#67,#45),#18,.T.);
#409=CLOSED_SHELL('',(#387,#388,#389,#390,#391,#392,#393,#394,#395,#396,
#397,#398,#399,#400,#401,#402,#403,#404,#405,#406,#407,#408));
#410=DERIVED_UNIT_ELEMENT(#412,1.);
#411=DERIVED_UNIT_ELEMENT(#692,-3.);
#412=(
MASS_UNIT()
NAMED_UNIT(*)
SI_UNIT($,.GRAM.)
);
#413=DERIVED_UNIT((#410,#411));
#414=MEASURE_REPRESENTATION_ITEM('density measure',
POSITIVE_RATIO_MEASURE(1.),#413);
#415=PROPERTY_DEFINITION_REPRESENTATION(#420,#417);
#416=PROPERTY_DEFINITION_REPRESENTATION(#421,#418);
#417=REPRESENTATION('material name',(#419),#690);
#418=REPRESENTATION('density',(#414),#690);
#419=DESCRIPTIVE_REPRESENTATION_ITEM('Generic','Generic');
#420=PROPERTY_DEFINITION('material property','material name',#699);
#421=PROPERTY_DEFINITION('material property','density of part',#699);
#422=AXIS2_PLACEMENT_3D('placement',#580,#464,#465);
#423=AXIS2_PLACEMENT_3D('',#581,#466,#467);
#424=AXIS2_PLACEMENT_3D('',#598,#476,#477);
#425=AXIS2_PLACEMENT_3D('',#599,#478,#479);
#426=AXIS2_PLACEMENT_3D('',#602,#480,#481);
#427=AXIS2_PLACEMENT_3D('',#606,#483,#484);
#428=AXIS2_PLACEMENT_3D('',#608,#486,#487);
#429=AXIS2_PLACEMENT_3D('',#609,#488,#489);
#430=AXIS2_PLACEMENT_3D('',#611,#490,#491);
#431=AXIS2_PLACEMENT_3D('',#612,#492,#493);
#432=AXIS2_PLACEMENT_3D('',#616,#495,#496);
#433=AXIS2_PLACEMENT_3D('',#618,#498,#499);
#434=AXIS2_PLACEMENT_3D('',#622,#502,#503);
#435=AXIS2_PLACEMENT_3D('',#624,#504,#505);
#436=AXIS2_PLACEMENT_3D('',#626,#506,#507);
#437=AXIS2_PLACEMENT_3D('',#628,#508,#509);
#438=AXIS2_PLACEMENT_3D('',#629,#510,#511);
#439=AXIS2_PLACEMENT_3D('',#630,#512,#513);
#440=AXIS2_PLACEMENT_3D('',#632,#515,#516);
#441=AXIS2_PLACEMENT_3D('',#633,#517,#518);
#442=AXIS2_PLACEMENT_3D('',#636,#520,#521);
#443=AXIS2_PLACEMENT_3D('',#637,#522,#523);
#444=AXIS2_PLACEMENT_3D('',#640,#524,#525);
#445=AXIS2_PLACEMENT_3D('',#644,#527,#528);
#446=AXIS2_PLACEMENT_3D('',#646,#530,#531);
#447=AXIS2_PLACEMENT_3D('',#648,#533,#534);
#448=AXIS2_PLACEMENT_3D('',#654,#538,#539);
#449=AXIS2_PLACEMENT_3D('',#656,#540,#541);
#450=AXIS2_PLACEMENT_3D('',#658,#542,#543);
#451=AXIS2_PLACEMENT_3D('',#660,#545,#546);
#452=AXIS2_PLACEMENT_3D('',#663,#549,#550);
#453=AXIS2_PLACEMENT_3D('',#665,#551,#552);
#454=AXIS2_PLACEMENT_3D('',#668,#554,#555);
#455=AXIS2_PLACEMENT_3D('',#669,#556,#557);
#456=AXIS2_PLACEMENT_3D('',#670,#558,#559);
#457=AXIS2_PLACEMENT_3D('',#673,#560,#561);
#458=AXIS2_PLACEMENT_3D('',#676,#564,#565);
#459=AXIS2_PLACEMENT_3D('',#680,#568,#569);
#460=AXIS2_PLACEMENT_3D('',#682,#570,#571);
#461=AXIS2_PLACEMENT_3D('',#684,#573,#574);
#462=AXIS2_PLACEMENT_3D('',#686,#576,#577);
#463=AXIS2_PLACEMENT_3D('',#687,#578,#579);
#464=DIRECTION('axis',(0.,0.,1.));
#465=DIRECTION('refdir',(1.,0.,0.));
#466=DIRECTION('center_axis',(-1.,0.,0.));
#467=DIRECTION('ref_axis',(0.,0.,1.));
#468=DIRECTION('',(0.,0.,1.));
#469=DIRECTION('',(0.,-1.,0.));
#470=DIRECTION('',(0.,0.,-1.));
#471=DIRECTION('',(0.,1.,0.));
#472=DIRECTION('',(0.,0.,-1.));
#473=DIRECTION('',(0.,-1.,0.));
#474=DIRECTION('',(0.,0.,1.));
#475=DIRECTION('',(0.,1.,0.));
#476=DIRECTION('center_axis',(0.,-1.,0.));
#477=DIRECTION('ref_axis',(0.,0.,-1.));
#478=DIRECTION('center_axis',(0.,1.,0.));
#479=DIRECTION('ref_axis',(-1.,0.,0.));
#480=DIRECTION('center_axis',(0.,1.,0.));
#481=DIRECTION('ref_axis',(0.689655172413793,0.,-0.724137931034483));
#482=DIRECTION('',(1.,0.,-6.93889390390723E-17));
#483=DIRECTION('center_axis',(0.,1.,0.));
#484=DIRECTION('ref_axis',(-0.689655172413793,0.,0.724137931034483));
#485=DIRECTION('',(-1.,0.,-6.93889390390723E-17));
#486=DIRECTION('center_axis',(0.,1.,0.));
#487=DIRECTION('ref_axis',(0.,0.,1.));
#488=DIRECTION('center_axis',(0.,1.,0.));
#489=DIRECTION('ref_axis',(-1.,0.,0.));
#490=DIRECTION('center_axis',(0.,1.,0.));
#491=DIRECTION('ref_axis',(-1.,0.,0.));
#492=DIRECTION('center_axis',(0.,1.,0.));
#493=DIRECTION('ref_axis',(0.,0.,1.));
#494=DIRECTION('',(-1.,0.,0.));
#495=DIRECTION('center_axis',(0.,-1.,0.));
#496=DIRECTION('ref_axis',(-0.689655172413793,0.,0.724137931034483));
#497=DIRECTION('',(-1.,0.,0.));
#498=DIRECTION('center_axis',(0.,0.,1.));
#499=DIRECTION('ref_axis',(1.,0.,0.));
#500=DIRECTION('',(1.,0.,0.));
#501=DIRECTION('',(0.,-1.,0.));
#502=DIRECTION('center_axis',(0.,1.,0.));
#503=DIRECTION('ref_axis',(0.,0.,1.));
#504=DIRECTION('center_axis',(0.,-1.,0.));
#505=DIRECTION('ref_axis',(1.,0.,1.22464679914735E-16));
#506=DIRECTION('center_axis',(-1.,0.,1.22464679914735E-16));
#507=DIRECTION('ref_axis',(-1.22464679914735E-16,0.,-1.));
#508=DIRECTION('center_axis',(0.,1.,0.));
#509=DIRECTION('ref_axis',(1.,0.,1.22464679914735E-16));
#510=DIRECTION('center_axis',(0.,1.,0.));
#511=DIRECTION('ref_axis',(1.,0.,1.22464679914735E-16));
#512=DIRECTION('center_axis',(0.,1.,0.));
#513=DIRECTION('ref_axis',(-1.,0.,0.));
#514=DIRECTION('',(0.,-1.,0.));
#515=DIRECTION('center_axis',(0.,1.,0.));
#516=DIRECTION('ref_axis',(0.,0.,1.));
#517=DIRECTION('center_axis',(0.,-1.,0.));
#518=DIRECTION('ref_axis',(0.,0.,-1.));
#519=DIRECTION('',(-1.,0.,0.));
#520=DIRECTION('center_axis',(0.,1.,0.));
#521=DIRECTION('ref_axis',(-0.689655172413793,0.,0.724137931034483));
#522=DIRECTION('center_axis',(0.,-1.,0.));
#523=DIRECTION('ref_axis',(0.,0.,-1.));
#524=DIRECTION('center_axis',(0.,1.,0.));
#525=DIRECTION('ref_axis',(0.689655172413793,0.,-0.724137931034483));
#526=DIRECTION('',(-1.,0.,0.));
#527=DIRECTION('center_axis',(0.,-1.,0.));
#528=DIRECTION('ref_axis',(-1.,0.,0.));
#529=DIRECTION('',(1.,0.,0.));
#530=DIRECTION('center_axis',(0.,0.,-1.));
#531=DIRECTION('ref_axis',(-1.,0.,0.));
#532=DIRECTION('',(0.,1.,0.));
#533=DIRECTION('center_axis',(0.,0.,1.));
#534=DIRECTION('ref_axis',(1.,0.,0.));
#535=DIRECTION('',(0.,1.,0.));
#536=DIRECTION('',(0.,-1.,0.));
#537=DIRECTION('',(-1.,0.,0.));
#538=DIRECTION('center_axis',(0.,1.,0.));
#539=DIRECTION('ref_axis',(0.,0.,1.));
#540=DIRECTION('center_axis',(0.,-1.,0.));
#541=DIRECTION('ref_axis',(0.689655172413793,0.,-0.724137931034483));
#542=DIRECTION('center_axis',(0.,1.,0.));
#543=DIRECTION('ref_axis',(-1.,0.,0.));
#544=DIRECTION('',(-1.,0.,0.));
#545=DIRECTION('center_axis',(0.,0.,-1.));
#546=DIRECTION('ref_axis',(-1.,0.,0.));
#547=DIRECTION('',(0.,-1.,0.));
#548=DIRECTION('',(0.,1.,0.));
#549=DIRECTION('center_axis',(0.,1.,0.));
#550=DIRECTION('ref_axis',(1.,0.,0.));
#551=DIRECTION('center_axis',(0.,1.,0.));
#552=DIRECTION('ref_axis',(1.,0.,0.));
#553=DIRECTION('',(0.,1.,0.));
#554=DIRECTION('center_axis',(0.,-1.,0.));
#555=DIRECTION('ref_axis',(1.,0.,0.));
#556=DIRECTION('center_axis',(0.,-1.,0.));
#557=DIRECTION('ref_axis',(0.,0.,-1.));
#558=DIRECTION('center_axis',(0.,1.,0.));
#559=DIRECTION('ref_axis',(0.689655172413793,0.,-0.724137931034483));
#560=DIRECTION('center_axis',(0.,-1.,0.));
#561=DIRECTION('ref_axis',(0.689655172413793,0.,-0.724137931034483));
#562=DIRECTION('',(0.,1.,0.));
#563=DIRECTION('',(0.,1.,0.));
#564=DIRECTION('center_axis',(6.93889390390723E-17,0.,-1.));
#565=DIRECTION('ref_axis',(-1.,0.,-6.93889390390723E-17));
#566=DIRECTION('',(1.,0.,6.93889390390723E-17));
#567=DIRECTION('',(0.,1.,0.));
#568=DIRECTION('center_axis',(0.,1.,0.));
#569=DIRECTION('ref_axis',(-0.689655172413793,0.,0.724137931034483));
#570=DIRECTION('center_axis',(0.,-1.,0.));
#571=DIRECTION('ref_axis',(-0.689655172413793,0.,0.724137931034483));
#572=DIRECTION('',(0.,1.,0.));
#573=DIRECTION('center_axis',(6.93889390390723E-17,0.,1.));
#574=DIRECTION('ref_axis',(1.,0.,-6.93889390390723E-17));
#575=DIRECTION('',(-1.,0.,6.93889390390723E-17));
#576=DIRECTION('center_axis',(0.,1.,0.));
#577=DIRECTION('ref_axis',(0.,0.,1.));
#578=DIRECTION('center_axis',(0.,1.,0.));
#579=DIRECTION('ref_axis',(-1.,0.,0.));
#580=CARTESIAN_POINT('',(0.,0.,0.));
#581=CARTESIAN_POINT('Origin',(0.315,0.23,-0.203469899493758));
#582=CARTESIAN_POINT('',(0.315,-2.77555756156289E-17,-0.203469899493758));
#583=CARTESIAN_POINT('',(0.315,-2.77555756156289E-17,0.203469899493758));
#584=CARTESIAN_POINT('',(0.315,-2.77555756156289E-17,-0.101734949746879));
#585=CARTESIAN_POINT('',(0.315,0.23,-0.203469899493758));
#586=CARTESIAN_POINT('',(0.315,0.115,-0.203469899493758));
#587=CARTESIAN_POINT('',(0.315,0.23,0.203469899493758));
#588=CARTESIAN_POINT('',(0.315,0.23,-0.101734949746879));
#589=CARTESIAN_POINT('',(0.315,0.115,0.203469899493758));
#590=CARTESIAN_POINT('',(0.315,0.085,0.125));
#591=CARTESIAN_POINT('',(0.315,0.085,-0.125));
#592=CARTESIAN_POINT('',(0.315,0.085,-0.164234949746879));
#593=CARTESIAN_POINT('',(0.315,0.145,0.125));
#594=CARTESIAN_POINT('',(0.315,0.1575,0.125));
#595=CARTESIAN_POINT('',(0.315,0.145,-0.125));
#596=CARTESIAN_POINT('',(0.315,0.145,-0.039234949746879));
#597=CARTESIAN_POINT('',(0.315,0.1875,-0.125));
#598=CARTESIAN_POINT('Origin',(-0.1875,-3.44420537012544E-17,0.));
#599=CARTESIAN_POINT('Origin',(0.,-1.11022302462516E-16,0.));
#600=CARTESIAN_POINT('',(-0.2,-3.44420537012544E-17,-0.21));
#601=CARTESIAN_POINT('',(-0.2,-3.44420537012544E-17,0.21));
#602=CARTESIAN_POINT('Origin',(0.,-3.44420537012544E-17,0.));
#603=CARTESIAN_POINT('',(0.2,-3.44420537012544E-17,0.21));
#604=CARTESIAN_POINT('',(0.00625000000000001,-3.44420537012544E-17,0.21));
#605=CARTESIAN_POINT('',(0.2,-3.44420537012544E-17,-0.21));
#606=CARTESIAN_POINT('Origin',(0.,-3.44420537012544E-17,0.));
#607=CARTESIAN_POINT('',(-0.19375,-3.44420537012544E-17,-0.21));
#608=CARTESIAN_POINT('Origin',(-0.305,0.23,0.));
#609=CARTESIAN_POINT('Origin',(0.,0.23,0.));
#610=CARTESIAN_POINT('',(0.235,0.23,-2.87791997799628E-17));
#611=CARTESIAN_POINT('Origin',(0.,0.23,0.));
#612=CARTESIAN_POINT('Origin',(0.,0.145,0.125));
#613=CARTESIAN_POINT('',(0.261677282162591,0.145,0.125));
#614=CARTESIAN_POINT('',(0.,0.145,0.125));
#615=CARTESIAN_POINT('',(0.261677282162591,0.145,-0.125));
#616=CARTESIAN_POINT('Origin',(0.,0.145,0.));
#617=CARTESIAN_POINT('',(0.,0.145,-0.125));
#618=CARTESIAN_POINT('Origin',(0.,0.085,0.125));
#619=CARTESIAN_POINT('',(0.261677282162591,0.085,0.125));
#620=CARTESIAN_POINT('',(0.,0.085,0.125));
#621=CARTESIAN_POINT('',(0.261677282162591,-2.77555756156289E-17,0.125));
#622=CARTESIAN_POINT('Origin',(0.,0.62,0.));
#623=CARTESIAN_POINT('',(-2.51052593825207E-17,0.65,-0.205));
#624=CARTESIAN_POINT('Origin',(0.,0.65,0.));
#625=CARTESIAN_POINT('',(-2.87791997799628E-17,0.62,-0.235));
#626=CARTESIAN_POINT('Origin',(-2.51052593825207E-17,0.62,-0.205));
#627=CARTESIAN_POINT('',(0.235,0.62,-2.87791997799628E-17));
#628=CARTESIAN_POINT('Origin',(0.,0.62,0.));
#629=CARTESIAN_POINT('Origin',(0.,0.62,0.));
#630=CARTESIAN_POINT('Origin',(0.,0.44,0.));
#631=CARTESIAN_POINT('',(0.235,0.44,-2.87791997799628E-17));
#632=CARTESIAN_POINT('Origin',(-0.1175,0.65,0.));
#633=CARTESIAN_POINT('Origin',(0.,0.085,-0.125));
#634=CARTESIAN_POINT('',(0.261677282162591,0.085,-0.125));
#635=CARTESIAN_POINT('',(0.,0.085,-0.125));
#636=CARTESIAN_POINT('Origin',(0.,0.085,0.));
#637=CARTESIAN_POINT('Origin',(0.,0.085,-0.125));
#638=CARTESIAN_POINT('',(-0.261677282162591,0.085,-0.125));
#639=CARTESIAN_POINT('',(-0.261677282162591,0.085,0.125));
#640=CARTESIAN_POINT('Origin',(0.,0.085,0.));
#641=CARTESIAN_POINT('',(-0.353553390593274,0.085,-0.125));
#642=CARTESIAN_POINT('',(0.,0.085,-0.125));
#643=CARTESIAN_POINT('',(-0.353553390593274,0.085,0.125));
#644=CARTESIAN_POINT('Origin',(0.,0.085,0.));
#645=CARTESIAN_POINT('',(0.,0.085,0.125));
#646=CARTESIAN_POINT('Origin',(0.,0.145,-0.125));
#647=CARTESIAN_POINT('',(0.261677282162591,-2.77555756156289E-17,-0.125));
#648=CARTESIAN_POINT('Origin',(0.,0.085,0.125));
#649=CARTESIAN_POINT('',(-0.261677282162591,0.145,0.125));
#650=CARTESIAN_POINT('',(-0.261677282162591,-2.77555756156289E-17,0.125));
#651=CARTESIAN_POINT('',(-0.353553390593274,0.145,0.125));
#652=CARTESIAN_POINT('',(-0.353553390593274,0.115,0.125));
#653=CARTESIAN_POINT('',(0.,0.145,0.125));
#654=CARTESIAN_POINT('Origin',(0.,0.145,0.125));
#655=CARTESIAN_POINT('',(-0.261677282162591,0.145,-0.125));
#656=CARTESIAN_POINT('Origin',(0.,0.145,0.));
#657=CARTESIAN_POINT('',(-0.353553390593274,0.145,-0.125));
#658=CARTESIAN_POINT('Origin',(0.,0.145,0.));
#659=CARTESIAN_POINT('',(0.,0.145,-0.125));
#660=CARTESIAN_POINT('Origin',(0.,0.145,-0.125));
#661=CARTESIAN_POINT('',(-0.261677282162591,-2.77555756156289E-17,-0.125));
#662=CARTESIAN_POINT('',(-0.353553390593274,0.115,-0.125));
#663=CARTESIAN_POINT('Origin',(0.,0.,0.));
#664=CARTESIAN_POINT('',(-0.15,0.16,1.83690953073357E-17));
#665=CARTESIAN_POINT('Origin',(0.,0.16,0.));
#666=CARTESIAN_POINT('',(-0.15,0.49,1.83690953073357E-17));
#667=CARTESIAN_POINT('',(-0.15,0.,1.83697019872103E-17));
#668=CARTESIAN_POINT('Origin',(0.,0.49,0.));
#669=CARTESIAN_POINT('Origin',(0.,0.49,0.));
#670=CARTESIAN_POINT('Origin',(0.,-3.44420537012544E-17,0.));
#671=CARTESIAN_POINT('',(-0.2,0.16,0.21));
#672=CARTESIAN_POINT('',(-0.2,0.16,-0.21));
#673=CARTESIAN_POINT('Origin',(0.,0.16,0.));
#674=CARTESIAN_POINT('',(-0.2,-3.44420537012544E-17,0.21));
#675=CARTESIAN_POINT('',(-0.2,-3.44420537012544E-17,-0.21));
#676=CARTESIAN_POINT('Origin',(-0.2,-3.44420537012544E-17,-0.21));
#677=CARTESIAN_POINT('',(0.2,0.16,-0.21));
#678=CARTESIAN_POINT('',(0.2,0.16,-0.21));
#679=CARTESIAN_POINT('',(0.2,-3.44420537012544E-17,-0.21));
#680=CARTESIAN_POINT('Origin',(0.,-3.44420537012544E-17,0.));
#681=CARTESIAN_POINT('',(0.2,0.16,0.21));
#682=CARTESIAN_POINT('Origin',(0.,0.16,0.));
#683=CARTESIAN_POINT('',(0.2,-3.44420537012544E-17,0.21));
#684=CARTESIAN_POINT('Origin',(0.2,-3.44420537012544E-17,0.21));
#685=CARTESIAN_POINT('',(-0.2,0.16,0.21));
#686=CARTESIAN_POINT('Origin',(-1.38777878078145E-17,0.16,6.25754777732384E-18));
#687=CARTESIAN_POINT('Origin',(0.,0.115,0.));
#688=UNCERTAINTY_MEASURE_WITH_UNIT(LENGTH_MEASURE(0.001),#692,
'DISTANCE_ACCURACY_VALUE',
'Maximum model space distance between geometric entities at asserted c
onnectivities');
#689=UNCERTAINTY_MEASURE_WITH_UNIT(LENGTH_MEASURE(0.001),#692,
'DISTANCE_ACCURACY_VALUE',
'Maximum model space distance between geometric entities at asserted c
onnectivities');
#690=(
GEOMETRIC_REPRESENTATION_CONTEXT(3)
GLOBAL_UNCERTAINTY_ASSIGNED_CONTEXT((#688))
GLOBAL_UNIT_ASSIGNED_CONTEXT((#692,#693,#694))
REPRESENTATION_CONTEXT('','3D')
);
#691=(
GEOMETRIC_REPRESENTATION_CONTEXT(3)
GLOBAL_UNCERTAINTY_ASSIGNED_CONTEXT((#689))
GLOBAL_UNIT_ASSIGNED_CONTEXT((#692,#693,#694))
REPRESENTATION_CONTEXT('','3D')
);
#692=(
LENGTH_UNIT()
NAMED_UNIT(*)
SI_UNIT(.CENTI.,.METRE.)
);
#693=(
NAMED_UNIT(*)
PLANE_ANGLE_UNIT()
SI_UNIT($,.RADIAN.)
);
#694=(
NAMED_UNIT(*)
SI_UNIT($,.STERADIAN.)
SOLID_ANGLE_UNIT()
);
#695=SHAPE_DEFINITION_REPRESENTATION(#696,#697);
#696=PRODUCT_DEFINITION_SHAPE('',$,#699);
#697=SHAPE_REPRESENTATION('',(#422),#690);
#698=PRODUCT_DEFINITION_CONTEXT('part definition',#703,'design');
#699=PRODUCT_DEFINITION('TL3265TBTNCLR','TL3265TBTNCLR',#700,#698);
#700=PRODUCT_DEFINITION_FORMATION('',$,#705);
#701=PRODUCT_RELATED_PRODUCT_CATEGORY('TL3265TBTNCLR','TL3265TBTNCLR',(#705));
#702=APPLICATION_PROTOCOL_DEFINITION('international standard',
'automotive_design',2009,#703);
#703=APPLICATION_CONTEXT(
'Core Data for Automotive Mechanical Design Process');
#704=PRODUCT_CONTEXT('part definition',#703,'mechanical');
#705=PRODUCT('TL3265TBTNCLR','TL3265TBTNCLR',$,(#704));
#706=PRESENTATION_STYLE_ASSIGNMENT((#708));
#707=PRESENTATION_STYLE_ASSIGNMENT((#709));
#708=SURFACE_STYLE_USAGE(.BOTH.,#714);
#709=SURFACE_STYLE_USAGE(.BOTH.,#715);
#710=SURFACE_STYLE_RENDERING_WITH_PROPERTIES($,#722,(#712));
#711=SURFACE_STYLE_RENDERING_WITH_PROPERTIES($,#723,(#713));
#712=SURFACE_STYLE_TRANSPARENT(0.);
#713=SURFACE_STYLE_TRANSPARENT(0.420000016689301);
#714=SURFACE_SIDE_STYLE('',(#716,#710));
#715=SURFACE_SIDE_STYLE('',(#717,#711));
#716=SURFACE_STYLE_FILL_AREA(#718);
#717=SURFACE_STYLE_FILL_AREA(#719);
#718=FILL_AREA_STYLE('',(#720));
#719=FILL_AREA_STYLE('',(#721));
#720=FILL_AREA_STYLE_COLOUR('',#722);
#721=FILL_AREA_STYLE_COLOUR('',#723);
#722=COLOUR_RGB('',0.749019607843137,0.749019607843137,0.749019607843137);
#723=COLOUR_RGB('',0.8,0.8,0.8);
ENDSEC;
END-ISO-10303-21;
